Oops, an error
Loading. Please wait.

Here We Go Again Tab

version 1
version 1

Intro

Whole song

6,034 views 3 this week
5 commentsread comments
1 2 3 4 5
excellent!
x 3
add to favorites
launch autoscroll
font size
0
reset
how to read this tab
guitar tuner
Tab Pro tools
  • play this tab
  • loop segment
  • change instrument
  • show fretboard
  • metronome
Autoscroll
slow
fast
+/-
esc
set tempo
stop
Contributor
I love this song to death, and I just figured out the intro this morning.
If anyone knows the chords in the background, please let me know. 
Hopefully I can figure the whole song out and post it up here soon.
Please rate and comment!

Tuning: Standard




e|---7-5-4---------------------------------------------------------|
B|---------7-5-4-----------------------------4-5h7-777/9-----------|
G|---------------6-4---------------------4-6-----------------------|
D|-------------------7-6-4-----------4-7---------------------------|
A|-------------------------7-6-4-6-7-------------------------------|
E|-----------------------------------------------------------------|


e|-----------------------------------------------------------------|
B|--9h10-7h9-5h7-4h5-4h5p4--0---9h10-7h9-5h7-4h5-4h5p4--7----------|
G|-----------------------------------------------------------------|
D|-----------------------------------------------------------------|
A|-----------------------------------------------------------------|
E|-----------------------------------------------------------------|

e|-----------------------------------------1212--1111--99--77------|
B|--77777/999999/101010101010/1212121212---------------------------|
G|-----------------------------------------------------------------|
D|-----------------------------------------------------------------|
A|-----------------------------------------------------------------|
E|-----------------------------------------------------------------|

e|--55--44---------------------------------------------------------|
B|----------77--55-------------------------------------------------|
G|------------------4-444--444h6p4---------------------------------|
D|-----------------------------------------------------------------|
A|-----------------------------------------------------------------|
E|-----------------------------------------------------------------|

comments
We did not receive enough feedback on this tab! Please rate:
print report bad tab
1 2 3 4 5
5 comments total. Showing first comments.
0 reply
starceylou wrote on May 9 2009, 11:50 pm

You are a champion; I think every being in this world has been looking for the introduction of this wonderful tune. You have saved the day, and it sounds really, really good. I have difficulty in doing it quickly so I put a capo on the fourth fret and on the open note on the B string, I changed it to fret four on the G string, so it's open with the capo on four. Thanks so much.

0 reply
titsmcgee852 wrote on August 21 2009, 08:59 pm

Perfect. Also, the chords for the verses are are:

Emaj and another I don't know the name of
--0------0---
--0------2---
--1------1---
--2------2---
--2------0---
--0----------

0 reply
jai.leeworthy wrote on December 5 2009, 06:44 pm

just adding to the other correction; the second chord is Amaj7

I want to post or [tab]
guest
You may want to rate the tab now too:
select rating
Please do not post tabs as comments. Select "correction" instead!