Oops, an error
Loading. Please wait.

Here We Go Again Tab

version 1
version 1

Whole song

10,002 views 9 this week
1 commentread comment
1 2 3 4 5
excellent!
x 8
add to favorites
launch autoscroll
font size
0
reset
how to read this tab
guitar tuner
Tab Pro tools
  • play this tab
  • loop segment
  • change instrument
  • show fretboard
  • metronome
×
Best way to learn
"Here We Go Again"
Autoscroll
slow
fast
+/-
esc
set tempo
stop
Contributor
After much unintentional delay, here is the full tab of this wonderful song :)
Please comment/rate

Standard tuning, no capo.


Main Chords:

  E     Amaj7   A2
--0------0------0--|
--0------2------2--|
--1------1------1--|
--2------2------2--|
--2------0------1--|
--0------0------0--|


(Note: there isn't much need to hold the 2nd fret on the A string in the E chord, since 
hardly plays it, if at all.)

INTRO/VERSE

Guitar 1 - Julia

     E                                     Amaj7
e|------------------------------------|-----------------------------------------|
B|--0---------0-------0---------0-----|----2----------2--------2----------2-----|
G|-------1--------1-------1---------1-|---------1---------1---------1---------1-|
D|-----2--------2-------2---------2---|-------2---------2---------2---------2---|
A|------------------------------------|----0-------0-----------0-------0--------|
E|--0------0----------0------0--------|-----------------------------------------|

Repeat throughout intro and verse


Guitar 2 - Angus

e|---7-5-4---------------------------------------------------------|
B|---------7-5-4------------------------------4-5h7-777/9----------|
G|---------------6-4----------------------4-6----------------------|
D|-------------------7-6-4-----------4-6-7-------------------------|
A|-------------------------7-6-4-6-7-------------------------------|
E|-----------------------------------------------------------------|


e|-----------------------------------------------------------------|
B|--9h10-7h9-5h7-4h5-4h5p4--0---9h10-7h9-5h7-4h5-4h5p4--7----------|
G|-----------------------------------------------------------------|
D|-----------------------------------------------------------------|
A|-----------------------------------------------------------------|
E|-----------------------------------------------------------------|

e|-----------------------------------------1212--1111--99--77------|
B|--77777/999999/101010101010/1212121212---------------------------|
G|-----------------------------------------------------------------|
D|-----------------------------------------------------------------|
A|-----------------------------------------------------------------|
E|-----------------------------------------------------------------|

e|--55--44---------------------------------------------------------|
B|----------77--55-------------------------------------------------|
G|------------------4-444--444h6p4---------------------------------|
D|-----------------------------------------------------------------|
A|-----------------------------------------------------------------|
E|-----------------------------------------------------------------|

Listen to the song to find out where to play certain riffs. The tab is the same for them.


CHORUS

Guitar 1 - Julia

      Amaj7                             A2
e|----------------------------------------|--------------------------------------|
B|---2----------2--------2----------2-----|--2---------2--------2---------2------|
G|--------1---------1---------1---------1-|-------1---------1--------1--------1--|
D|------2---------2---------2---------2---|-----2--------2---------2--------2----|
A|---0-------0-----------0-------0--------|--1-------1----------1-------1--------|
E|----------------------------------------|--------------------------------------|

"Oohh...Here we go again..."

Repeat throughout

Guitar 2 - Angus

[Same tab as Intro/Verse]


INTERLUDE

Guitar 1 - Julia

I'm just posting this as a bass line. Listen to the song carefully for the timing.


e|-------------------------|----------------------|
B|-------------------------|----------------------|
G|-------------------------|----------------------|
D|------1--------2---------|----------------------|
A|---------0~-----------0~-|------0~--------0~----|
E|--0~--------------0~-----|--0~-------0~---------|

Repeat the second bar throughout.

Guitar 2 - Angus

e|------------------------------------------1-----------------|
B|-----4h5-4-7~----4h5-4----------4h5-4-7-------4h5-4---------|
G|------------------------6--4~-----------1-----------6--4~---|
D|------------------------------------------------------------|
A|------------------------------------------------------------|
E|------------------------------------------------------------|

e|------------------------------------------------------------|
B|------------------------------------------------2-4-5-------|
G|------------------------------------1-------1-4-------------|
D|---------------1-2---------------1--------4-----------------|
A|----------2-4----------------2-4----------------------------|
E|--0-2-4-5------------0-2-4-5--------------------------------|


e|--2-2-2-22s4-4-444--7-7-7-7---|
B|------------------------------|
G|------------------------------|
D|------------------------------|
A|------------------------------|
E|------------------------------|


End the whole song by strumming an E chord downwards.
And thats it! :)
- Maddy Hermawan
comments
print report bad tab
1 comment total.
0 reply
SammyWenta wrote on July 29 2014, 04:15 am

really minor adjustment...I could be wrong, it's just what I hear.

This is a great tab!

it's just the 5s7 at the end.

e|-----------------------------------------------------------------|
B|--9h10-7h9-5h7-4h5-4h5p4--0---9h10-7h9-5h7-4h5-4h5p4--5s7--------|
G|-----------------------------------------------------------------|
D|-----------------------------------------------------------------|
A|-----------------------------------------------------------------|
E|-----------------------------------------------------------------|

I want to post or [tab]
guest
You may want to rate the tab now too:
select rating
Please do not post tabs as comments. Select "correction" instead!