Oops, an error
Loading. Please wait.

Im Yours Tab

version 1
version 1

Whole song

Interactive

30,539 views 6 this week
no commentswrite comment
1 2 3 4 5
worth learning
x 5
add to favorites
launch autoscroll
font size
0
reset
how to read this tab
guitar tuner
Tab Pro tools
  • play this tab
  • loop segment
  • change instrument
  • show fretboard
  • metronome
Autoscroll
slow
fast
+/-
esc
set tempo
stop
Contributor
Standard Tuning



HARMOINCS INTRO:
E-|-------------------------------|
B-|-------------------------------| 
G-|-------------------------------|
D-|-------<7>-----------<12>------|
A-|-<12>--------<7>---------------|
E-|-------------------------------|

VERSES:
E-|---------------------------------------------------|
B-|---------------------------------------------------| 
G-|------9-----------11-----------9-----------11------|
D-|---11---11-----11----11-----11---11-----11----11---|
A-|-0-----------0------------0-----------0------------|
E-|---------------------------------------------------|

CHORUS
E-|-------------------------------------------------------|
B-|----2------2------2------2------2------2-----2------2--| 
G-|---2-2----2-2----2-2----2-2----2-2----2-2---2-2----2-2-|
D-|-------------------------------------------------------|
A-|-----------------------------2------2------2-----2-----|
E-|-2------2------2------2--------------------------------|
comments
print report bad tab
I want to post or [tab]
guest
You may want to rate the tab now too:
select rating
Please do not post tabs as comments. Select "correction" instead!