Oops, an error
Loading. Please wait.

Mango Tree Tab

version 1
version 1

Whole song

Interactive

168,920 views 72 this week
5 commentsread comments
1 2 3 4 5
excellent!
x 35
add to favorites
launch autoscroll
font size
0
reset
how to read this tab
guitar tuner
Tab Pro tools
  • play this tab
  • loop segment
  • change instrument
  • show fretboard
  • metronome
×
Best way to learn
"Mango Tree"
Autoscroll
slow
fast
+/-
esc
set tempo
stop
Contributor
Angus and Julia Stone
Mango Tree
Chocolate and Cigarettes EP

Intro
    G                    Em7
e|------0---------0---------0---------0--------------------------------| 
B|------3-3-------3-3-------3-3-------3-3------------------------------| 
G|----------0---------0---------0---------0----------------------------| 
D|---------------------------------------------------------------------| 
A|---------------------------------------------------------------------| 
E|--3-3--------3-3-------0-0-------0-0---------------------------------| 

G
I wish I had a mango tree
Em7
In my backyard 
G
With you standing next to me
Em7
Take the picture
G
From her lips I heard her say
Em7
Can I have you
G
Caught up on what to say
             Em7
I said you do

Chorus
    I said you do...       I said you do...  
e|---0----0----0----0-------0----0----0----0----------------------------| 
B|---3----3----3----3-------3----3----3----3----------------------------| 
G|----------------------------------------------------------------------| 
D|------------------------------0--0------------------------------------| 
A|--3--3-2--2--------------3--3-----------------------------------------| 
E|------------3--3-3-----3-----------3--3-3-----------------------------| 



Through my eyes I can see
A shooting star
Weaving its way across the sea
Somewhere from Mars
Cause down the street we will run
Scatch our names in the path
Young and free, in the sun
Wheels upon the tar
I said you do

I said you do
I said you do
I said you do
I said you do

solo

    G                                    Em7
e|--7-5-3----3p0-------------------------7h8--0-3-5-5s7-5-3h5p3--------| 
B|---------------3p0---------------------------------------------------|
G|-------------------2p0-----------0-----------------------------------| 
D|-----------------------2p0--0h2--------------------------------------| 
A|---------------------------------------------------------------------| 
E|---------------------------------------------------------------------| 

    G                                    Em7 
e|--7-5-3----3p0-------------------------7h8--0-3-5-5s7-5-3h5p3--------| 
B|---------------3p0---------------------------------------------------| 
G|-------------------2p0-----------0-----------------------------------| 
D|-----------------------2p0--0h2--------------------------------------| 
A|---------------------------------------------------------------------| 
E|---------------------------------------------------------------------| 

   Chorus played over
e|-2-2h3---------2-2h3----------2-2h3----------------------------------| 
B|--------0-0h1---------1-1h3----------1-3--3--------------------------| 
G|---------------------------------------------0-----------------------| 
D|---------------------------------------------------------------------| 
A|---------------------------------------------------------------------| 
E|---------------------------------------------------------------------| 


I wish I had a mango tree
In my backyard 
With you standing next to me
Take the picture
From her lips I heard her say
Can I have you
Caught up on what to say
I said you do

I said you do
I said you do
I said you do
I said you do

G Em7

http://www.angusandjuliastone.com/v106alpha.htm
comments
print report bad tab
5 comments total. Showing first comments.
0 reply
Sparkyno1 wrote on December 29 2006, 08:47 pm

minor typo, on the chorus, open on the D string not on A

-2 reply
*Jordie1* wrote on January 15 2007, 05:23 pm

I think in the chorus it goes up to 5th instead of open on A

I said you do... I said you do...
e|---0----0----0----0-------0----0----0----0-------------------------
B|---3----3----3----3-------3----3----3----3-------------------------
G|-------------------------------------------------------------------
D|-------------------------------------------------------------------
A|--3--3-2--2--------------3--3-0--0---------------------------------
E|------------3--3-3-----3-----------3--3-3--------------------------

+1 reply
*Jordie1* wrote on January 15 2007, 05:23 pm

but otherwise its a calming song and a super tab!

I want to post or [tab]
guest
You may want to rate the tab now too:
select rating
Please do not post tabs as comments. Select "correction" instead!