Oops, an error
Loading. Please wait.

Paper Aeroplane Tab

version 3
version 3

Whole song

Interactive

41,253 views 96 this week
no commentswrite comment
1 2 3 4 5
excellent!
x 11
add to favorites
launch autoscroll
font size
0
reset
how to read this tab
guitar tuner
Tab Pro tools
  • play this tab
  • loop segment
  • change instrument
  • show fretboard
  • metronome
×
Best way to learn
"Paper Aeroplane"
Autoscroll
slow
fast
+/-
esc
set tempo
stop
Contributor
Paper Aeroplane
Written by Angus & Julia Stone
Tabbed by Greg B
Corrected: November 2008

Much better then the previous version submitted.
Whole song is palm muted :)

BPM: 104
4/4

% = repeat

Tuning(Drop D#):

E
B
G
D
A
D#

INTRO:
    1 +2 +3 +4 +  1 +2 +3 +4 +  1 +2 +3 +4 +  1 +2 +3 +4 +  
E |-------------|-------------|-------------|-------------|
B |-------------|-------------|-------------|-------------|
G |-------------|-------------|-------------|-------------|
D |----1--1--1--|-1--1--1--1--|-1--1--1--1--|-1--1--1--1--|
A |---2----22---|--22----22---|--2----------|-------------|
D#|-------------|-------------|---0----00---|--00----00---|

Main Riff:
    1 +2 +3 +4 +  1 +2 +3 +4 +  1 +2 +3 +4 +  1 +2 +3 +4 +  
E |-------------|-------------|-------------|-------------|-|
B |-------------|-------------|-------------|-------------|%|
G |-------------|-------------|-------------|-------------|%|
D |-1--1--1--1--|-1--1--1--1--|-1--1--1--1--|-1--1--1--1--|%|
A |---2----22---|--22----22---|--2----------|-------------|%|
D#|--0----------|-------------|---0----00---|--00----00---|-|

You can play it in Drop D as well and fret the bottom string on 1 but the
above is the easiest way to play the song I think.

Here's the variation in the middle of the song :)

Variation:
E |-------------|-------------|-------------|-------------|-|
B |-------------|-------------|-------------|-------------|%|
G |----3--3--3--|-3--3--3--3--|-3-----------|-------------|%|
D |-1-----------|-------------|----1--1--1--|-1--1--1--1--|%|
A |---2----22---|--22----22---|--2----------|-------------|%|
D#|--0----------|-------------|---0----00---|--00----00---|-|
comments
print report bad tab
I want to post or [tab]
guest
You may want to rate the tab now too:
select rating
Please do not post tabs as comments. Select "correction" instead!