Oops, an error
Loading. Please wait.

Red Berries Tab

version 2
version 2

Whole song

2,519 views 1 this week
no commentswrite comment
1 2 3 4 5
excellent!
x 3
add to favorites
launch autoscroll
font size
0
reset
how to read this tab
guitar tuner
Tab Pro tools
  • play this tab
  • loop segment
  • change instrument
  • show fretboard
  • metronome
Autoscroll
slow
fast
+/-
esc
set tempo
stop
Contributor
Difficulty
novice
|---------------------------------------|
|  RED BERRIES - Angus and Julia Stone  |
|---------------------------------------|
|         Tabbed by: markush19          |
|---------------------------------------|
|           Tuning: standard            |
|---------------------------------------|

This was previously tabbed by mja05, but was slightly wrong and missing bits.

INTRO:

      C        Em         Am       Am        Am        Am
e|---------|---------|---------|---------|---------|---------|      
B|---1-----|---0-----|---1-----|---1-----|---1-----|---1-----|       
G|-------0-|-------0-|-------2-|-------2-|-------2-|-------0-|        
D|-----2---|-----2---|-----2---|-----2---|-----2---|-----2---|        
A|-3-------|---------|-0-------|-0-------|-0-------|-0-------|         
E|---------|-0-------|---------|---------|---------|---------|         
                                                                       
      C        Em         Am         Am         Am         Am          
e|---------|---------|----------|----------|----------|----------|     
B|---1-----|---0-----|---1------|-----0h1--|---1------|----0h1---|     
G|-------0-|-------0-|--------2-|--------2-|-------2--|---2----0-|     
D|-----2---|-----2---|-----2----|---2------|-----2----|--2-------|   
A|-3-------|---------|-0--------|-0--------|-0--------|-0--------|   
E|---------|-0-------|----------|----------|----------|----------|  


VERSE:

      C        Em         Am       Am        Am        Am
e|---------|---------|---------|---------|---------|---------|   
B|---1-----|---0-----|---1-----|---1-----|---1-----|---1-----|    
G|-------0-|-------0-|-------2-|-------2-|-------2-|-------0-|     
D|-----2---|-----2---|-----2---|-----2---|-----2---|-----2---|     
A|-3-------|---------|-0-------|-0-------|-0-------|-0-------|    
E|---------|-0-------|---------|---------|---------|---------|   


CHORUS:

     Am        Em         C                  F
e|---------|---------|---------|----------------------------|
B|---1-----|---0-----|---1-----|--1--1--1-----1---1-----1---|
G|-------2-|-------0-|-------0-|----------0h2-------0h2-----|
D|-----2---|-----2---|-----2---|-0--2--3--------3-----------|
A|-0-------|-2-------|-3-------|----------------------------|
E|---------|---------|---------|----------------------------|

            F
e|----------------------|
B|---1-----1----1-----1-|
G|-----0h2--------0h2---|
D|-3---------3----------|
A|----------------------|
E|----------------------|

     Am        Em         C                 F
e|---------|---------|---------|--------------------------|   \
B|---1-----|---0-----|---1-----|--1--1--1-----1---1-----1-|    \
G|-------2-|-------0-|-------0-|----------0h2-------0h2---|     |
D|-----2---|-----2---|-----2---|-0--2--3--------3---------|     |
A|-0-------|-2-------|-3-------|--------------------------|     |
E|---------|---------|---------|--------------------------|     |
                                                                |  x 2
            F                                                   |
e|-----------------------|                                      |
B|---1-----1-----1-----1-|                                      |
G|-----0h2---0h2---0h2---|                                      |
D|-3---------------------|                                      |
A|-----------------------|                                     /
E|-----------------------|                                    /

     Am        Em         C                  F
e|---------|---------|---------|----------------------------|
B|---1-----|---0-----|---1-----|--1--1--1-----1---1-----1---|
G|-------2-|-------0-|-------0-|----------0h2-------0h2-----|
D|-----2---|-----2---|-----2---|-0--2--3--------3-----------|
A|-0-------|-2-------|-3-------|----------------------------|
E|---------|---------|---------|----------------------------|

            F
e|----------------------|
B|---1-----1----1-----1-|
G|-----0h2--------0h2---|
D|-3---------3----------|
A|----------------------|
E|----------------------|

OUTRO:

      F         G        Am         Am
e|---------|---------|---------|---------|  \
B|---1-----|---3-----|---1-----|----0h1--|   \
G|-------2-|-------4-|-------2-|---2---0-|    | x 3
D|-----3---|-----5---|-----2---|--2------|    |
A|---------|---------|-0-------|-0-------|   /
E|-1-------|-3-------|---------|---------|  /

      F         G     
e|---------|---------|           
B|---1-----|---3-----|           
G|-------2-|-------4-|            Slide up from the F to the G
D|-----3---|-----5---|            throughout the outro.
A|---------|---------|
E|-1-------|-3-------|

|--------------|
|  SONG SETUP: |
|              |
| -Intro  x2   |
| -Verse  x9   |
| -Chorus x1   |
| -Intro  x2   |
| -Verse  x9   |
| -Chorus x1   |
| -Intro  x2   |
| -Outro  x1   |
|--------------|

| /  slide up
| \  slide down
| h  hammer-on
| p  pull-off
| ~  vibrato
| +  harmonic
| x  Mute note
comments
We did not receive enough feedback on this tab! Please rate:
print report bad tab
1 2 3 4 5
I want to post or [tab]
guest
You may want to rate the tab now too:
select rating
Please do not post tabs as comments. Select "correction" instead!