Oops, an error
Loading. Please wait.

Santa Monica Dream tab

version 3
version 3

Whole song

38,432 views 279 this week
6 commentsread comments
1 2 3 4 5
x 46
add to favorites
×
Save as Personal and add changes to this tab that will be seen only by you. Learn more ›
×
You can save this tab as Personal to edit and correct it or add notes. All changes will be seen only by you. Learn more »
launch autoscroll
font size
0
reset
how to read this tab
guitar tuner
edit
Autoscroll
slow
fast
+/-
esc
set tempo
stop
-------------------------------------------------------------------------------
                    SANTA MONICA DREAM - Angus & Julia Stone
-------------------------------------------------------------------------------
Tabbed by: CJJ11

Tuning: Open D, Capo on 3rd fret


[Intro/Verse]

d |--------------------------|--------------------------|
A |-----0-----------0--------|-----0-----------0--------|
F#|-----------1-----------0--|-----------3-----------0--|
D |--------0-----------0-----|--------0-----------0-----|
A |--2-----------2-----------|--4-----------4-----------|
D |--------------------------|--------------------------|

d |-----0-----------0--------|-----0-----------0--------|
A |--------------------------|--------------------------|
F#|-----------0-----------0--|-----------0-----------0--|
D |--0-----0-----0-----0-----|--0-----0-----0-----0-----|
A |--------------------------|--------------------------|
D |--------------------------|--------------------------|


[Chorus]

d |--------------------------|--------------------------|
A |-----0-----------0--------|-----0-----------0--------|
F#|*----------0-----------0--|-----------0-----------0--|
D |*-------0-----------0-----|--------0-----------0-----|
A |--------------------------|--------------------------|
D |--0-----------0-----------|--0-----------0-----------|

d |--------------------------|---------------------------|  
A |-----0-----------0--------|-----0-----------0---------|
F#|-----------0-----------0--|-----------0-----------0--*|
D |--------0-----------0-----|--------0-----------0-----*|
A |--------------------------|---------------------------|
D |--5-----------5-----------|--5-----------5------------|(x2)

d |--------------------------|--------------------------|
A |-----0-----------0--------|-----0-----------0--------|
F#|-----------0-----------0--|-----------3-----------0--|
D |--------0-----------0-----|--------0-----------0-----|
A |--2-----------2-----------|--4-----------4-----------|
D |--------------------------|--------------------------|

d |-----0-----------0--------|-----0-----------0--------|
A |--------------------------|--------------------------|
F#|-----------0-----------0--|-----------0-----------0--|
D |--0-----0-----0-----0-----|--0-----0-----0-----0-----|
A |--------------------------|--------------------------|
D |--------------------------|--------------------------|

d |--------------------------|--------------------------|
A |-----0-----------0--------|-----0-----------0--------|
F#|-----------1-----------0--|-----------3-----------0--|
D |--------0-----------0-----|--------0-----------0-----|
A |--2-----------2-----------|--4-----------4-----------|
D |--------------------------|--------------------------|

            
            
Suggest correction
Creating personal tab
Creating personal tab
You can edit any tab online and save it as your Personal.

You can edit, replace or remove any tab part or add personal notes – all changes will be seen only by you.

Personal tabs can be accessed anytime from any device, even offline.
Learn more »
comments
print report bad tab
6 comments total. Showing first comments.
+7 reply
kwanzo91 57 Nov 06, 2015 01:29 PM

Love the tab, only I've found it's slightly easier to play it this way because you can keep the same fingerpicking pattern throughout.

D |--------------------------|--------------------------|--------------------------
A |-----0-----------0--------|-----0-----------0--------|-----5-----------5--------
F#|-----------1-----------0--|-----------3-----------3--|-----------0-----------0--
D |--------0-----------0-----|--------0-----------0-----|--------0-----------0-----
A |--2-----------2-----------|--4-----------4-----------|--5-----------5-----------
D |--------------------------|--------------------------|--------------------------

+3 reply
nestorkir 10 Apr 10, 2017 08:33 PM

DO you know by any chance how to play this while singing? (like what lyrics go where)

0 reply
freakyfreddy77 10 Apr 28, 2017 04:42 AM

👍

guest
You may want to rate the tab now too:
select rating
Wanna post a correction for this tab? Suggest correction