Oops, an error
Loading. Please wait.

Yellow Brick Road Tab

version 4
version 4

Whole song

Interactive

3,007 views 15 this week
no commentswrite comment
1 2 3 4 5
please rate
add to favorites
launch autoscroll
font size
0
reset
how to read this tab
guitar tuner
Tab Pro tools
  • play this tab
  • loop segment
  • change instrument
  • show fretboard
  • metronome
×
Best way to learn
"Yellow Brick Road"
Autoscroll
slow
fast
+/-
esc
set tempo
stop
Contributor
Capo
4th fret
CAPO 4
Standard Tuning

Verse Chords: F / G / Am / G

Chorus Chords: F / Am / G / Am / G

Solo:

(/) Slide Up  (\) Slide Down  (h) Hammer On  (p) Pull Off  (b) Bend
RELATIVE TO CAPO

E|--0--8--5--0--8--5--0------------------------------------|
B|--0--8--5--0--8--5--0------------------------------------|
G|-----------------------5h7p5-----7-7---5h7p5-------------|
D|------------------------------7--------------7--5--5h7---|
A|---------------------------------------------------------|
E|---------------------------------------------------------|



E|--12--12--10--10--8--8--5--5--12--12--10--10--10--10b--------|
B|--10--10--8---8---8--8--5--5--10--10--8---8--------------10--|
G|-------------------------------------------------------------|
D|-------------------------------------------------------------|
A|-------------------------------------------------------------|
E|-------------------------------------------------------------|



E|---------------------------------------------------------|
B|-10-10-10-10-8-8-8-8-6-6-6-6-5-5-5-5---------------------|
G|-------------------------------------7-7-7-7-5-5-5-5-7b8-|
D|---------------------------------------------------------|
A|---------------------------------------------------------|
E|---------------------------------------------------------|



E|------------------------------------8-------8-----------|
B|--------------------------------------10-5----10-5------|
G|-7-7-7-7-7-7-7-7-7-5-5-5-5-------------------------4/5/-|
D|----------------------------7---------------------------|
A|--------------------------------------------------------|
E|--------------------------------------------------------|



E|-8----------------------------------------------------------|
B|---10-5-----------------------------------------------------|
G|-------------------7b8b7-7-7-7-7-7------5p4-----------------|
D|--------5h7-8b9-----------------------------5-5h7-----------|
A|--------------------------------------------------5-5h7-7---|
E|----------------------------------------------------------5-|



E|---------12-12-12-12-12-12-15-12----------------|
B|------8-----------------------------------------|
G|------------------------------------4-4-5-4-5-4-|
D|------------------------------------------------|
A|------------------------------------------------|
E|-5----------------------------------------------|



E|---------------------------------------------------------------------------|
B|---------------------------------------------------------------------------|
G|-5p4-------5p4-------5p4-----------------5p4-------5p4---------------------|
D|-----5-5/7-----5-5/7-----5-5/7-----5h7-------5-5/7-----5-5/7---------------|
A|-------------------------------5h7---------------------------5h7-7-7-7-7---|
E|-------------------------------------------------------------------------5-|



E|-12-12-10--------------------------------3---------|
B|-------------10--8-8h10-8------3-3b----3---3-------|
G|---------------------------------------------5b7b5-|
D|---------------------------------------------------|
A|---------------------------------------------------|
E|---------------------------------------------------|



E|-12-12-12-12-10-10-10-10-8-8-8-8-7-7-7-7-5---5-5-5---|
B|-----------------------------------------------------|
G|-----------------------------------------------------|
D|-----------------------------------------------------|
A|-----------------------------------------------------|
E|-----------------------------------------------------|



E|-12-12-12-12-10-10-10-10-8-8-8-8-7-7-7-7-----------|
B|-----------------------------------------7/8-8-8-8-|
G|---------------------------------------------------|
D|---------------------------------------------------|
A|---------------------------------------------------|
E|---------------------------------------------------|



E|-------------------------------------------------------------------|
B|-------------------------------------------------------------------|
G|-------------------------------------------------5-------5---------|
D|---------------------------------------------------5-5h7/---5-5h7/-|
A|-----------5-5h7-7-7-7\0--------------7-7-7\5----------------------|
E|-5-7-8-7-8------------------5-7-8-7-8------------------------------|



E|---8-5-0----------12-12-12-12-12--10-10--8-8---5-5--12-12--10-10-10-10b----------------|
B|-5-------------------------10-10--8--8---8-8---5-5--10-10--8--8-----------10-10-8-8-10-|
G|-----------7b8-------------------------------------------------------------------------|
D|-----------5---------------------------------------------------------------------------|
A|---------------------------------------------------------------------------------------|
E|---------------------------------------------------------------------------------------|



E|---------------------------------------------5-|
B|---------------------------------------------5-|
G|---------------------------------------------5-|
D|---------------------------------------------7-|
A|-------5-------5-------5---5h7-7-------------7-|
E|-5-7-8---8-7-8---8-7-8-----------5-7-8-7-5---5-|


This is my first tab, let me know if you have any corrections or suggestions!
comments
We did not receive enough feedback on this tab! Please rate:
print report bad tab
1 2 3 4 5
I want to post or [tab]
guest
You may want to rate the tab now too:
select rating
Please do not post tabs as comments. Select "correction" instead!