Oops, an error
Loading. Please wait.

32 Flavors intro tab

version 1
version 1

Intro

Whole song

13,296 views 15 this week
2 commentsread comments
1 2 3 4 5
x 9
add to favorites
×
Save as Personal and add changes to this tab that will be seen only by you. Learn more ›
×
You can save this tab as Personal to edit and correct it or add notes. All changes will be seen only by you. Learn more »
launch autoscroll
font size
0
reset
how to read this tab
guitar tuner
edit
Autoscroll
slow
fast
+/-
esc
set tempo
stop
------------------------------------------------------------------------------
                             32 Flavors - Ani Difranco
------------------------------------------------------------------------------
Tabbed by: David Petrey

Tuning: high drop-D? Detune high e string to d.

Capo 3

d|------------0---------5-------0--------|
B|--1--3--------0-----3---3--5----5p0----|
G|--0------0------0---0------0--------0--|
D|--2------2---------(4)-----------------|
A|--3-----(2)---------5------3-----------|
E|---------0-----------------------------|

I never could figure out exactly what Ani was doing on this song. After watching many 
videos of Ani I found this video:
http://www.youtube.com/watch?v=wzm33hXHcUk&feature=related
There I noticed that the e string had to be tuned different. So thanks to scienceisneato 
that.

            
            
Suggest correction
Creating personal tab
Creating personal tab
You can edit any tab online and save it as your Personal.

You can edit, replace or remove any tab part or add personal notes – all changes will be seen only by you.

Personal tabs can be accessed anytime from any device, even offline.
Learn more »
comments
print report bad tab
2 comments total.
0 reply
dageri1 30 Apr 11, 2011 09:59 AM

This sounds pretty accurate to me!!!

0 reply
Elleo 20 Nov 10, 2011 01:30 PM

With the following modification you can play this without too much added difficulty in a standard tuning:

e|----------------------3----------------|
B|--1--3------3p0-----3---3--5--3-5p0----|
G|--0------0------0---0------0--------0--|
D|--2------2---------(4)-----------------|
A|--3-----(2)---------5------3-----------|
E|---------0-----------------------------|

guest
You may want to rate the tab now too:
select rating
Wanna post a correction for this tab? Suggest correction