Oops, an error
Loading. Please wait.

Evolve tab

version 3
version 3

Whole song

2,186 views 9 this week
1 commentread comment
1 2 3 4 5
x 3
add to favorites
×
Save as Personal and add changes to this tab that will be seen only by you. Learn more ›
×
You can save this tab as Personal to edit and correct it or add notes. All changes will be seen only by you. Learn more »
launch autoscroll
font size
0
reset
how to read this tab
guitar tuner
edit
Autoscroll
slow
fast
+/-
esc
set tempo
stop
D7 tuning: D,A,C,F#,A,D

Nh = natural harmonic
^ = up stroke
V = down stroke
X = picked while muted with fretting hand
/ = slide up

Riff1
|------0-------------------------|
|--------------------------------|
|--------------------------------|
|----------0---------------------|
|------------0---3---------------|
|0-------X---------------4-------|
|1   &   2   &   3   &   4   &   |

Riff2
|------0-------------------------|
|--------------------------------|
|--------------------------------|
|----------0---------------------|
|------------0---5---------------|
|0-------X---------------3-------|
|1   &   2   &   3   &   4   &   |

Riff1b          
|------0-------------------------|
|--------------------------------|
|--------------------------------|
|----------0-------0-------------|
|------------0-------3-----------|
|0-------X-------X-------4-------|
|1   &   2   &   3   &   4   &   |

Riff2b
|------0-------------------------|
|--------------------------------|
|--------------------------------|
|----------0---------------------|
|------------0---5---------------|
|0-------X-----------4---3-------|
|1   &   2   &   3   &   4   &   |

Riff2c          
|------0-------------------------|
|--------------------------------|
|--------------------------------|
|----------0-------0-------------|
|------------0-------5-----------|
|0-------X-------X-------3-------|
|1   &   2   &   3   &   4   &   |

Riff2d
|------0-------------------------|
|--------------------------------|
|--------------------------------|
|----------0---------------------|
|------------0---3---5-----------|
|0-------X---------------3-------|
|1   &   2   &   3   &   4   &   |

Riff2e
|------0-------------------------|
|--------------------------------|
|--------------------------------|
|----------0---------------------|
|------------0---5---5---5-------|
|0-------X-----------------------|
|1   &   2   &   3   &   4   &   |

Chord change bit:
Riff1                             G
|------0-------------------------|-
|--------------------------------|-
|--------------------------------|-
|----------0---------------------|-
|------------0---3---------------|-
|0-------X---------------4-------/5
|1   &   2   &   3   &   4   &   |1

Riff3           nh       nh
|------0-----------------5v------|
|------------------------5v------|
|----------------7^------5v------|
|----------0-----7^------5v------|
|------------0---7^--------------|
|0-------X-------7^--------------|
|1   &   2   &   3   &   4   &   |


Intro: Riff1, Riff2b, Riff1, Riff2b, Riff1b, Riff2b, Riff1, Riff2

Riff1
I walk in stride with people
Riff2b
Much taller than me
Riff1
And partly it’s the boots but
Riff2b
Mostly it’s my chi
Riff1
And I’m becoming transfixed with
Riff2
Nature and my part in it which
Riff1                        G
I believe just signifies I’m finally waking up

Riff1
And that moth outside my kitchen door she’s
Riff2
Bonkers for that bare bulb
Riff1
Flying round in circles
Riff2b
Bashing in her exoskull and 
Riff1
Out in the woods she navigates
Riff2
Fine by the moon but
Riff1                               G  
Get her round a light bulb and she’s doomed

Riff1                       Riff2
And she is trying to evolve
Riff1                    Riff2c 
She is trying to evolve
Riff1                    Riff2c 
She’s trying to evolve
Riff1                    Riff2d
She’s trying to evolve

Interlude: Riff1b, Riff2e, Riff1b, Riff3

I’m not going to write out the rest of the whole thing as there’s no need. 
Just alternate between Riff 1 and Riff2 using the variations 
wherever you feel like it.

            
            
Suggest correction
Creating personal tab
Creating personal tab
You can edit any tab online and save it as your Personal.

You can edit, replace or remove any tab part or add personal notes – all changes will be seen only by you.

Personal tabs can be accessed anytime from any device, even offline.
Learn more »
Give kudos to tab author, rate the tab!
1 2 3 4 5
comments
print report bad tab
1 comment total.
0 reply
Luaeria 425 Apr 12, 2014 08:11 AM

Love this tune!

guest
You may want to rate the tab now too:
select rating
Wanna post a correction for this tab? Suggest correction