Oops, an error
Loading. Please wait.

Used To You Tab

1,168 views 6 this week
no commentswrite comment
1 2 3 4 5
3 more votes to show rating
add to favorites
launch autoscroll
font size
0
reset
how to read this tab
guitar tuner
×
Best way to learn
"Used To You"
Autoscroll
slow
fast
+/-
esc
set tempo
stop
"Used To You" by Ani DiFranco from 'Puddle Dive.'
Courtesy of Boris Shaefer (sbo@psy.med.uni-muenchen.de)


**Tuning: DADGBE**

Verse:
 
E|------------------------|-----------------------|
B|----------5--6p5--5-----|---------5--6p5--5-----|
G|-------7--5--5----5--7--|------7--5--5----5-----|
D|-------7-------------7--|------7----------------|
A|------------------------|-----------------------|
D|--0---------------------|--3--------------------|
 
E|--------------8---10----|------10--10--10--10---|
B|-------6--10--10--10----|------10--10--10--10---|
G|-------5--9-------------|-----------------------|
D|------------------------|-----------------------|
A|------------------------|-----------------------|
D|--5---------------------|--0--------------------|
 
Chorus:
 
E|---------------------------------------------------------|
B|--------------------6----6--6-------5---------6----6--6--|
G|--------------------5----5--5-------5---------5----5--5--|
D|--------------------7----7--7-------5---------7----7--7--|
A|--------------------5----5--5-------5---------5----5--5--|
D|--0---0---3---5-----------------3-------0----------------|



i'm still here because
i've got nothing else to do
you're an asshole
but i'm getting used to you
i like the fact that
you talk incessantly
i got a thing for assholes
who tell good stories

i think that drinking
is the only thing that you do right
you're gonna self-destruct
i think that's what i like
you like me so you try and make me
feel like shit
i think it's kind of funny yeah
i kind of enjoy it

if you're gonna do it, overdo it
that's how you know you're alive
go ahead, take yourself a coma nap
take a puddle dive

you said, this is my bedroom window
you said, this is my view
you said, lie down here with me
and see the things that i do
like you were trying to tell me something
about the way you live
like you would give me something
if you had something to give

and for all your talk
you don't say much that's real
i think i know more than you
about the way that you feel
i understand your anger
and your apathy
i think if i was you,
you're who i'd be

i'm still here
'cause i got nothing else to do
you're an asshole but
i'm getting used to you
i could love you, yeah
i've entertained the thought
but i could never like you
so i guess i'd better not
Suggest correction
Give kudos to tab author, rate the tab!
1 2 3 4 5
comments
print report bad tab
guest
You may want to rate the tab now too:
select rating
Wanna post a correction for this tab? Suggest correction