Oops, an error
Loading. Please wait.

Deep In bass

197 views 1 this week
no commentswrite comment
1 2 3 4 5
3 more votes to show rating
add to favorites
×
Save as Personal and add changes to this tab that will be seen only by you. Learn more ›
×
You can save this tab as Personal to edit and correct it or add notes. All changes will be seen only by you. Learn more »
launch autoscroll
font size
0
reset
guitar tuner
edit
Autoscroll
slow
fast
+/-
esc
set tempo
stop
Author
Difficulty
Animal Alpha - Deep In

http://animalalpha.com/

Notes: This is what’s being played. When to play what is up to you.
Feal free to leave a comment if you like or dislike it.

Main Riff:
G|----------------------|                
D|--9----------8--------|                  
A|---8-8-6-8-8---8------|     x3    
E|----------------------|


G|--------------------------|
D|--9-----------------------|
A|----6-6-6-6-6-6-6-6-------|       x1
E|--------------------------|


Intro (main riff pluss this):
G|---------------------------------------------|
D|--7-----7-----7---7-------7--------9/10------|
A|----9-9---9-9---9---9-9-------9-9------------|
E|---------------------------------------------|

G|-------------------------------------------- |
D|--7------7------7---7-----7------------------|
A|-----9-9---9-9---9---9-9---9-9-9/8-----------|
E|---------------------------------------------|


Refrain / Bridge:
G|---------------------|
D|--------------88-----|
A|--6-8-8---88---------|
E|---------------------|

G|-------------1010-----|
D|----------------------|
A|--6-8-8---88----------|
E|----------------------|

G|----------------------|
D|----------------------|
A|--6-8-8---6-8-----6---|
E|--------------6-8-----|

Right before solo (how to be god....)
A|---8-----| let ring


Holesnusken

            
            
Suggest correction
Creating personal tab
Creating personal tab
You can edit any tab online and save it as your Personal.

You can edit, replace or remove any tab part or add personal notes – all changes will be seen only by you.

Personal tabs can be accessed anytime from any device, even offline.
Learn more »
Give kudos to tab author, rate the tab!
1 2 3 4 5
comments
print report bad tab
guest
You may want to rate the tab now too:
select rating
Wanna post a correction for this tab? Suggest correction