Oops, an error
Loading. Please wait.

Two Corvettes Tab

19 views 3 this week
no commentswrite comment
1 2 3 4 5
3 more votes to show rating
add to favorites
launch autoscroll
font size
0
reset
how to read this tab
guitar tuner
Autoscroll
slow
fast
+/-
esc
set tempo
stop
Help us to improve Ultimate-Guitar.com Take our survey!
×
Author
Difficulty
Tuning
novice
C# G# C# F# A# D#
About this tab version
The tuning is in drop C# because the previous song in the album should also be tuned to drop C# and every song on the album is meant to be played seamlessly into one another. Was this info helpful? Yes No
[Intro]
The tuning for this song should be drop C# so that it can be transitioned to right out of Doggy. This song
is pretty loose and is pretty much just these riffs throughout with some minor changes in timing.

D#|------------------|------------------|------------------|------------------|
A#|------------------|------------------|------------------|---------------5--|
F#|-----7---7--------|-----7---7--------|-----7---7--------|-----7-4--7-------|
C#|-------5---5------|-------5---5------|-------5---5------|------5-----------|
G#|------------------|------------------|------------------|------------------|
C#|------------------|------------------|------------------|------------------|

D#|------------------|------------------|------------------|------------------|
A#|------------------|------------------|------------------|---------------5--|
F#|-----7---7--------|-----7---7--------|-----7---7--------|-----7-4--7-------|
C#|-------4---4------|-------4---4------|-------4---4------|------4-----------|
G#|------------------|------------------|------------------|------------------|
C#|------------------|------------------|------------------|------------------|



Sometimes they play a variation on the first part like this:
D#|------------------|------------------|------------------|------------------|
A#|------------------|------------------|------------------|---------------5--|
F#|-----7---7--------|-----7---7--------|-----4---7--7-----|-------4--7-------|
C#|-------5---5------|-------5---5------|------------------|------5-----------|
G#|------------------|------------------|------------------|------------------|
C#|------------------|------------------|------------------|------------------| 
Suggest correction
Give kudos to tab author, rate the tab!
1 2 3 4 5
comments
print report bad tab
guest
You may want to rate the tab now too:
select rating
Wanna post a correction for this tab? Suggest correction