Oops, an error
Loading. Please wait.

Cafo Bass Tab

version 1
version 1

Whole song

Interactive

5,150 views 3 this week
3 commentsread comments
1 2 3 4 5
please rate
add to favorites
launch autoscroll
font size
0
reset
guitar tuner
Autoscroll
slow
fast
+/-
esc
set tempo
stop
Help us to improve Ultimate-Guitar.com Take our survey!
×
Author
Difficulty
Tuning
intermediate
B E A D F# B
-------------------------------------------------------------------------------
                             CAFO - Animals As Leaders
-------------------------------------------------------------------------------

Tabbed By : Michael
e-mail: Mikeyc94@yahoo.com

Tuning:BEAD

Guitar sweep intro

G|---------------------------------------------------------------------------|
D|---------------------------------------------------------------------------|
A|---------------------------------------------------------------------------|
E|-777-777--7-7--7777-777-777--7-7--7777-777-777--7-7--7777-777-777--7-7-----|
       
G|---------------------------------------------------------------------------|
D|---------------------------------------------------------------------------|
A|---------------------------------------------------------------------------|
E|-7777--7----7----7----7----7----7-------------------------------------------|

G|-----------7-6--------------------------------7-6--------------------------|
D|-----9-------------9------------------9-----9------------------------------|
A|---------------------------------------------------------------------------|
E|-7-7---7-7-----7-7---7-7-7-10-9-7-7-7---7-7-------7-7-7-10-9-8-7-----------|

G|-----------------7-6------------6-7-----------------7-6-----------6-7------|
D|-----9-----8------------8---------------9-----8-------------8-------------9|
A|---------------------------------------------------------------------------|
E|-7-7---7-7---7-7----7-7---7-7-------7-7---7-7---7-7-----7-7---7-7-----7-7--|

G|---------------------------------------------------------------------------|
D|---------------------------------------------------------------------------|
A|---------------------------------------------------------------------------|
E|-0-0-0000-0-00000-3-3-3333-3-33333-----------------------------------------|

G|-----------------7-6------------6-7-----------------7-6-----------6-7------|
D|-----9-----8------------8---------------9-----8-------------8-------------9|
A|---------------------------------------------------------------------------|
E|-7-7---7-7---7-7----7-7---7-7-------7-7---7-7---7-7-----7-7---7-7-----7-7--|

G|---------------------------------------------------------------------------|
D|---------------------------------------------------------------------------|
A|---------------------------------------------------------------------------|
E|-0-0-0000-0-00000-3-3-3333-3-33333-//7-------------------------------------|
(Repeat 40 times?)
G|------------|---------------------------------------|----------------------|
D|------------|---------------------------------------|----------------------|
A|------------|---------------------------------------|----------------------|
E|-7-10-5-8-7-|-7-10-5-8-7--7-10-5-8-7--7-10-5-8-7~~~-|-x5-------------------|
  (Repeated about 7 times)
G|---------------------------------------------------------------------------|
D|---------------------------------------------------------------------------|
A|---------------------------------------------------------------------------|
E|-7~---11~---10~---8/3~-----------------------------------------------------|

G|-----------7-6--------------------------------7-6--------------------------|
D|-----9----9---------9------------------9-----9-----------------------------|
A|---------------------------------------------------------------------------|
E|-7-7---7-7-----7-7---7-7-7-10-9-7-7-7---7-7-------7-7-7-10-9-8-7-x7-or-8---|

G|---------------------------------------------------------------------------|
D|---------------------------------------------------------------------------|
A|---------------------------------------------------------------------------|
E|-0-0-0000-0-00000-0-3-3-3333-3-333333-x2-----------------------------------|

G|---------------------------------------------------------------------------|
D|---------------------------------------------------------------------------|
A|-----7~------7~------------------------------------------------------------|
E|-0~-----0~-----------------------------------------------------------------|

G|---------------------------------------------------------------------------|
D|---------------------------------------------------------------------------|
A|---------------------------------------------------------------------------|
E|-0-0-0000-0-00000-0--4-4-4444-4-44444-4------------------------------------|

G|------------------------------------------------1-4------------------------|
D|--------------------------------------------1-4-----44444------------------|
A|-----66666-----66666------------6-6-----1-4--------------------------------|
E|-0-0-------0-0-------00000--0-0-----1-4------------------------------------|

I'm sorry but I could not figure out the bass line that starts at 5:02

G|---------------------------------------------------7-6----------------------|
D|--------------------------------------------9--------------9---------------9|
A|----------------------------------------------------------------------------|
E|-3-3-3333-3-33333-3--0-0-0000-0-00000-0-7-7---7--7-----7-7---7-7-10-9-7-7-7-|

G|-----------------------------------------------------------------7-6-------|
D|-----------------------------------------------------------9-------------9|
A|---------------------------------------------------------------------------|
E|-0-0-0000-0-00000--3-3-3333-3-33333--0-0-0000-0-00000--7-7---7-7-----7-7---|

G|---------------------------------------------------------------------------|
D|---------------------------------------------------------------------------|
A|---------------------------------------------------------------------------|
E|-7-7-10-9-7----------------------------------------------------------------|
(Repeat until song fades out)
G|---------------------------------------------------------------------------|
D|---------------------------------------------------------------------------|
A|---------------------------------------------------------------------------|
E|-7777-777-777---3-3--------------------------------------------------------|

This is my first tab so please go lightly.
There was no tab for this so I thought I would tab it out.
Any corrections, especially that part I couldn't figure out, please email me.
I know the rythems for the 0's, 3's, and 4's aren't spot on but
I learned all this by ear. Thanks! :D
Suggest correction
What's this?
You can suggest a correction to this tab. Community and Mods will review your correction and vote to approve or reject it.
comments
We did not receive enough feedback on this tab! Please rate:
print report bad tab
1 2 3 4 5
3 comments total.
-1 reply
ColdHeartedHero 405 wrote on February 9 2012, 09:16 am

Idk whether to post this as comment or correction, but im 96% sure there is no bass in animals as leaders. Tosin just used a clean toned 8 string guitar. ???

0 reply
mikeyc94 39 wrote on February 13 2012, 08:31 pm

It's actually programmed synth bass. I just decided to tab it out for an actual bass.

0 reply
Aays 1,210 wrote on September 26 2012, 09:46 pm

Misha Mansoor (who produced the album with Tosin) said that it was an 8 string, but engineered/pitch shifted to sound like a bass... so yeah it works for an actual bass. Good tab, rhythms seem a little off here and there but no major problems. Keep up the good work :)

guest
You may want to rate the tab now too:
select rating
Please do not post tabs as comments. Select "correction" instead!