Oops, an error
Loading. Please wait.

David Tab

version 1
version 1

Whole song

Interactive

5,480 views 75 this week
no commentswrite comment
1 2 3 4 5
excellent!
x 6
add to favorites
launch autoscroll
font size
0
reset
how to read this tab
guitar tuner
Tab Pro tools
  • play this tab
  • loop segment
  • change instrument
  • show fretboard
  • metronome
×
Best way to learn
"David"
Autoscroll
slow
fast
+/-
esc
set tempo
stop
Contributor
6-string guitar tab. 
Standard tuning.

e---------10-------------------------14------------|
B--------------------------------10------10--------|
G-----10------10-----------------------------------| (x8)
D--8--------------8--12--10--12--------------12----|
A--------------------------------------------------|
E--------------------------------------------------|

e-----------------------------6-----5--------------|
B--------------------6-----------------------------|
G--------7-----------------7-----------------------| 
D-----------------8-----4--------4-----------------|
A-----9-----8--5-----------------------------------|
E--6-----------------------------------------------|

e--------6-----------6-----------------------------|
B-----------------------------8--------------------|
G-----7-----------7--------------------------------| 
D--5--------7--4-----------8-----8-----------------|
A-----------------------6-----------6--------------|
E--------------------------------------------------|

e-----------------------------6-----5--------------|
B--------------------6-----------------------------|
G--------7-----------------7-----------------------| 
D-----------------8-----4--------4-----------------|
A-----9-----8--5-----------------------------------|
E--6-----------------------------------------------|

e--------6--8----|
B----------------|
G-----7----------| 
D--5--------7----|
A----------------|
E----------------|

e--10------10-----8--------------------------------|
B--10-------------10------11-----------------------|
G--------------------------------------------------| 
D--------------------------------------------------|
A--9-------6------9--------------------------------|
E--------------------------------------------------|

e--10--10--10--10----------------------------------|
B--10--10--10--10----------------------------------|
G--------------------------------------------------| 
D--------------------------------------------------|
A--10------10------10------------------------------|
E--------------------------7-----7------7----------|

e--10------10--------------------------------------|
B--10--10--10--10----------------------------------|
G------8-------8--9--------------------------------| 
D--------------------------------------------------|
A--7-------7---------------6------6----------------|
E--------------------7-----------------------------|

e--------------------------------------------------|
B--------------------------------------------------|
G--9--9--9--9--------------------------------------| 
D--9--9--9--9--------------------------------------|
A--------------------------------------------------|
E--8-----8---------8------8------8------8----------|

e--------------------------------7--8--------------|
B-----------------------------8--------------------|
G--------------------4--7--8-----------------------| 
D-----------------5--------------------------------|
A--6--------5--6-----------------------------------|
E-----3--7-----------------------------------------|

e--10---------10--7--------------------------------|
B------------------------10--------------8---------|
G--------------------------------------------------| 
D--------------------------------------------------|
A--10----------------------------10----------------|
E----------7---------------------------------------|

e--7-----------------------------------------------|
B---------8--7--8--10-----8--7--8------------------|
G--------------------------------------------------| 
D-------------------------5------------------------|
A--7---------------6-------------------------------|
E--------------------------------------------------|

e---------------0----|
B--------------------|
G--------------------| 
D--9-----------------|
A--------------------|
E--8-----------------|

e--------------------------------------------------|
B-----------------------------8--------------------|
G--------------------4--7--8-----10--8--7----------| 
D-----------------5------------------------10------|
A--6--------5--6-----------------------------------|
E-----3--7-----------------------------------------|

e---------10-------------------------14------------|
B--------------------------------10------10--------|
G-----10------10-----------------------------------| (x32)
D--8--------------8--12--10--12--------------12----| 
A--------------------------------------------------|
E--------------------------------------------------|
comments
print report bad tab
I want to post or [tab]
guest
You may want to rate the tab now too:
select rating
Please do not post tabs as comments. Select "correction" instead!