Oops, an error
Loading. Please wait.

Point To Point Tab

version 2
version 2

Whole song

Interactive

9,236 views 24 this week
1 commentread comment
1 2 3 4 5
excellent!
x 3
add to favorites
launch autoscroll
font size
0
reset
how to read this tab
guitar tuner
Tab Pro tools
  • play this tab
  • loop segment
  • change instrument
  • show fretboard
  • metronome
Autoscroll
slow
fast
+/-
esc
set tempo
stop
Contributor
Difficulty
advanced
Couldn't find an 8-string version and all the others were incorrect. 
I'd like to say this is 100% correct. This is my final version of this tab.

Video reference: http://www.youtube.com/watch?v=83Bnko0Hkd8

Transcribed by Addison Slone, email is Nfrno@hotmail.com.

Tuning: EBEADGBE

(with heavy delay/reverb/tosin magic)

e|-16----------------------------------------------------------------------|
b|--------0----------------------------------------------------------------|
g|----15---------15--------------------------------------------------------|
d|-----------16-----------16-----------------------------------------------|
a|-------------------14------------14--------------------------------------|
e|-----------------------------0-------------------------------------------|
b|--------------------------------------0----------------------------------|
e|---------------------------------------------0---------------------------|

e|-----------------------------16,-------9----------4-4-4,-----------------|
b|---------------------------0-----------0----------0-0-0------------------|
g|------------------------15-----------8------------3-3-3------------------|
d|------------------14/16------------9--------------4-4-4---9/8------------|
a|-------------13/14---------------7----------------X-X-X-------9/11/14----|
e|-------12-16----0-----------------------------4---4-4-4------------------|
b|----12---------------------------------------4---------------------------|
e|-12-----------------------------------------4----------------------------|

e|-----------------------------16,-------9---------9--9--9-----------------|
b|---------------------------0-----------0---------0--0--0-----------------|
g|------------------------15-----------8-----------8--8--8--9\8------11----|
d|------------------14/16------------9-------------9--9--9------9/11-------|
a|-------------13/14---------------7---------------------x-----------------|
e|-------12-16----0-----------------------------9--------9-----------------|
b|----12---------------------------------------9---------------------------|
e|-12-----------------------------------------9----------------------------|

e|------------------------------------------------0---0--------0---0-------|
b|------------9-------12-------------------0------0---0--------0---0-------|
g|---------13---13-------11-------------16--------15--15-------15--15------|
d|------11---------11-------11-------15-----------16--16-------16--16------|
a|---11---------------------------14---------------------------------------|
e|-0------------------------------------------16-----------14--------------|
b|--------------------------------------------16-----------14--------------|
e|--------------------------------------------16-----------14--------------|

e|-------------------------------------------------------------------------|
b|------------9-------12---------------------------------------------------|
g|---------13---13-------11----9------------9------------------------------|
d|------11---------11-------11---13-----------13---------------------------|
a|---11-----------------------------11-9-11------11-9-11-------------------|
e|-0-----------------------------------------------------------------------|
b|-------------------------------------------------------------------------|
e|-------------------------------------------------------------------------|

This repeats several times. On last time, play ending riff four times instead
of once, then this (twice).

e|--------------------------------------------16---------------------------|
b|-----------------------------------------19----19----19\-16--------------|
g|--------------------------16-18-------16-------------16\-13--18-16-20----|
d|---------16-16----------16------16-18-------------18-18\-16,-18-16-20----|
a|------16-------16----18---------0----------------------------18-14-18----|
e|-16h19------------19 ----------------------------------------X--X--18----|
b|-0-----------------------------------------------------------0--0--0-,---|
e|-------------------------------------------------------------------------|

e|-------------------------------------------------------------------------|
b|-------------------------------------------------------------------------|
g|-13\11/13-8b-------------------------------------------------------------|
d|-13\11/13-8b---6---------------------------------------------------------|
a|-11\-9/11-6b---6---------------------------------------------------------|
e|-x--------x----x--------------X2-----------------------------------------|
b|-0--------0----5---------------------------------------------------------|
e|-------------------------------------------------------------------------|
comments
We did not receive enough feedback on this tab! Please rate:
print report bad tab
1 2 3 4 5
1 comment total.
0 reply
jaapnac wrote on December 10 2011, 02:46 pm

Very good, one little mistake :

 
e|------------|
b|----------0-|
g|-------16---|
d|----15------|
a|-14---------|
e|------------|
b|------------|
e|------------|

should be :

e|------------|
b|----------0-|
g|-------15---|
d|----16------|
a|-14---------|
e|------------|
b|------------|
e|------------|

I want to post or [tab]
guest
You may want to rate the tab now too:
select rating
Please do not post tabs as comments. Select "correction" instead!