Oops, an error
Loading. Please wait.

The Brain Dance Tab

2,119 views 411 this week
no commentswrite comment
1 2 3 4 5
x 9
add to favorites
launch autoscroll
font size
0
reset
how to read this tab
guitar tuner
Autoscroll
slow
fast
+/-
esc
set tempo
stop
Help us to improve Ultimate-Guitar.com Take our survey!
×
Author
(/) Slide Up  (\) Slide Down  (h) Hammer On  (p) Pull Off  (b) Bend (r) Release (v) Vibrato


E|-------------------------------------------------------------------------------------------------------
B|-------------------------------------------------------------------------------------------------------
G|----------------------------------------------------------------11--11--11---------11--11--11--11--11--
D|------9--9--9--9--9--9h11p9------9--11--9--11h13p11--9--11--13--------------11h13----------------------
A|--11-------------------------11------------------------------------------------------------------------
E|-------------------------------------------------------------------------------------------------------


E|-------------------------------------------------------------------------------------------------------
B|--------------------12--12-----------------------------------------------------------------------------
G|--11h13p11--11--13----------11h13p11--11--11------11---------------------------------------------------
D|----------------------------------------------13------11h13p11--11--11--8/9--11------9--9--9--9--9--9--
A|---------------------------------------------------------------------------------11--------------------
E|-------------------------------------------------------------------------------------------------------


E|-----------------------------------
B|-----------------------------------
G|-----------------------------------
D|--9--9--9--9--9--9--9--9--9--9--9--
A|-----------------------------------
E|-----------------------------------
Suggest correction
comments
print report bad tab
guest
You may want to rate the tab now too:
select rating
Wanna post a correction for this tab? Suggest correction