Oops, an error
Loading. Please wait.

The Future That Awaited Me Tab

version 1
version 1

Intro

Interactive

1,574 views 1 this week
no commentswrite comment
1 2 3 4 5
please rate
add to favorites
launch autoscroll
font size
0
reset
how to read this tab
guitar tuner
Tab Pro tools
  • play this tab
  • loop segment
  • change instrument
  • show fretboard
  • metronome
×
Best way to learn
"The Future That Awaited Me"
Autoscroll
slow
fast
+/-
esc
set tempo
stop
Contributor
Just started tabbing this a few hours ago, this is what I've got so far. If you have any 
questions or comments, please email me at nini07321@gmail.com. Thank you for using my 
tab! :)

(/) Slide Up  (\) Slide Down  (h) Hammer On  (p) Pull Off  (b) Bend (r) Release (v) Vibrato

Stave 1:

E|------------------------------|--|
B|--11----------13----------15--|--|
G|------------------------------|--| x8
D|------12--------------15------|--|
A|----------10------13----------|--|
E|------------------------------|--|

Stave 2:

E|----------------------------------------------------------|-----|
B|--11----------------------13----------------------14--17--|-----|
G|--------------14------14----------------------------------|-----|  x1
D|------12----------11----------13--12----------15----------|-----|
A|----------10--12----------------------15--13--------------|-----|
E|----------------------------------------------------------|-----|

Stave 3:

E|------------------------------|--|
B|--15----------17----------18--|--|
G|------------------------------|--|  x3
D|------15--------------15------|--|
A|----------13------17----------|--|
E|------------------------------|--|

Stave 4:

E|------------------------------|--|
B|--14----------17----------18--|--|
G|------------------------------|--|  x1
D|------15--------------14------|--|
A|----------13------16----------|--|
E|------------------------------|--|

Stave 5:

E|---------------------|----|---|----|
B|--11----------13-----|-10-|-8-|-8--|
G|---------------------|----|---|----|  x4
D|------12-------------|----|---|----|
A|----------10------10-|-8--|-7-|-6--|
E|---------------------|----|---|----|

Stave 6:

E|----|---|----|---|---|--------------------|
B|--8-|-6-|-10-|-8-|-8-|-8------------------|
G|----|---|----|---|---|----11-----11-------|  x2
D|----|---|----|---|---|--------------------|
A|--6-|-5-|-8--|-7-|-7-|--------7------7--7-|
E|----|---|----|---|---|--------------------|

Stave 7:

E|----|---|---|---|---|------------------|
B|--5-|-3-|-7-|-5-|-5-|-5----------------|
G|----|---|---|---|---|----8-----8-------|  x2
D|----|---|---|---|---|------------------|
A|--3-|-2-|-5-|-4-|-4-|-------4-----4--4-|
E|----|---|---|---|---|------------------|

Stave 8:

E|-----------------------|
B|--2--------4--------6--|
G|-----------------------|  x3
D|-----3-----------6-----|
A|--------1-----4--------|
E|-----------------------|

Stave 9:

E|-------------------------|---------------|
B|--2--------4--------6/11-|-9-------------|
G|-------------------------|---------------|  x1
D|-----3-----------6-------|-------12------|
A|--------1-----4----------|----8------11--|
E|-------------------------|---------------|

Stave 10:

E|------------------------|-----------------------|----------------------------|
B|--7--------9---------11-|-7--------9---------10-|-7--------9---------11------|
G|------------------------|-----------------------|----------------------------|  x1
D|-----7-----------11-----|----7-----------11-----|----7-----------11------11--|
A|--------5-----9---------|-------5-----9---------|-------5-----9--------------|
E|------------------------|-----------------------|----------------------------|

							http://www.guitartabcreator.com
comments
We did not receive enough feedback on this tab! Please rate:
print report bad tab
1 2 3 4 5
I want to post or [tab]
guest
You may want to rate the tab now too:
select rating
Please do not post tabs as comments. Select "correction" instead!