Oops, an error
Loading. Please wait.

The Woven Web Tab

version 1
version 1

Intro

Interactive

7,051 views 21 this week
no commentswrite comment
1 2 3 4 5
x 4
add to favorites
launch autoscroll
font size
0
reset
how to read this tab
guitar tuner
×
Best way to learn
"The Woven Web"
Autoscroll
slow
fast
+/-
esc
set tempo
stop
Difficulty
Tuning
intermediate
D A D G B E
-------------------------------------------------------------------------------
                             THE WOVEN WEB (INTRO) - Animals As Leaders
-------------------------------------------------------------------------------
Tabbed by: https://www.youtube.com/user/espibanez1

Tuning: BDADGBE

Left hand is all hammer-ons.

             T  T           T  T     T     T  T     T
E|----------------------------------------------------------|
B|----------------------------------------------------------|
G|o-----------------6\5/6-----------------------------------|
D|-----------11-------------11-------11----11-------11------|
A|o--7\6/7----------4\3/4-----------------------------------|
D|--------------11-------------11-------------11-------9----|
B|--------------------------------5-----7--------9----------|

             T  T           T  T     T     T  T     T
E|----------------------------------------------------------|
B|----------------------------------------------------------|
G|-----------------6\5/6------------------------------------|
D|-----------11-------------11-------11----11-------11------|
A|--7\6s/----------4\3/4------------------------------------|
D|--------------11-------------11-------------11-------9----|
B|--------------------------------5-----7--------9----------|

    T  T     T  T     T     T  T        T  T
E|----------------------------------------------|
B|-----------------------------------9----------|
G|-----------------------9----------------------|
D|--11----9--11-------11----11----------11------|
A|-----11-------11-------------11---------------|
D|--7--------------7--------------7--------11---|
B|----------------------------------------------|

             T  T        T  T        T  T
E|----------------------------------------------------|
B|----------------------------------------------------|
G|--------9-------------------------------------------|
D|-----------11----------10----------10---------------|
A|--7--------------7-----------6-----------6----------|
D|--------------11----------10----------10------------|
B|-----9--------------9-----------9-----------9-------|

             T  T           T  T     T     T  T     T
E|----------------------------------------------------------|
B|----------------------------------------------------------|
G|-----------------6\5/6------------------------------------|
D|-----------11-------------11-------11----11-------11------|
A|--7\6/7----------4\3/4------------------------------------|
D|--------------11-------------11-------------11-------9----|
B|--------------------------------5-----7--------9----------|

             T  T           T  T     T     T  T     T
E|----------------------------------------------------------|
B|----------------------------------------------------------|
G|-----------------6\5/6------------------------------------|
D|-----------11-------------11-------11----11-------11------|
A|--7\6/7----------4\3/4------------------------------------|
D|--------------11-------------11-------------11-------9----|
B|--------------------------------5-----7--------9----------|

    T  T     T  T     T     T  T        T  T
E|----------------------------------------------|
B|-----------------------------------9----------|
G|-----------------------9----------------------|
D|--11----9--11-------11----11----------11------|
A|-----11-------11-------------11---------------|
D|--7--------------7--------------7--------11---|
B|----------------------------------------------|

             T  T        T  T        T  T
E|----------------------------------------------------|
B|----------------------------------------------------|
G|--------9-------------------------------------------|
D|-----------11----------10----------10---------------|
A|--7--------------7-----------6-----------6----------|
D|--------------11----------10----------10------------|
B|-----9--------------9-----------9-----------9-------|

    T
E|----------------------------------------|
B|----------------------------------------|
G|----------------------------------------|
D|--11------------------------------------|
A|--11------------------------------------|
D|--------------------2--4--6-------------|
B|--2--4--5--4--5--7----------------------|

    T
E|----------------------------------------|
B|----------------------------------------|
G|--8-------------------------------------|
D|--9-------------------------------------|
A|----------------------------------------|
D|--------------------2--4--6--4--6--7----|
B|--2--4--5--4--5--7----------------------|

    T
E|----------------------------------------|
B|----------------------------------------|
G|----------------------------------------|
D|--11------------------------------------|
A|--11------------------------------------|
D|--------------------2--4--6-------------|
B|--2--4--5--4--5--7----------------------|

    T
E|----------------------------------------|
B|--9-------------------------------------|
G|--8-------------------------------------|
D|----------------------------------------|
A|----------------------------------------|
D|--------------------2--4--6--4--6--7----|
B|--2--4--5--4--5--7----------------------|

    T       T     T        T
E|------------------------------------------|
B|------------------------------------------|
G|--9\7-------------------------------------|
D|----------9--------------9/11-------------|
A|----------------9-------------------------|
D|------------------------------------------|
B|--3---------------------------------------|

             T        T    T
E|--------------------------------------|
B|--------------------------------------|
G|--------------------------------------|
D|-----------11/12----11---9------------|
A|--------------------------------------|
D|-----------11/12----11---9------------|
B|--3-----------------------------------|

    T
E|----------------------------------------|
B|----------------------------------------|
G|----------------------------------------|
D|--11------------------------------------|
A|--11------------------------------------|
D|--------------------2--4--6-------------|
B|--2--4--5--4--5--7----------------------|

    T
E|----------------------------------------|
B|----------------------------------------|
G|--8-------------------------------------|
D|--9-------------------------------------|
A|----------------------------------------|
D|--------------------2--4--6--4--6--7----|
B|--2--4--5--4--5--7----------------------|

    T
E|----------------------------------------|
B|----------------------------------------|
G|----------------------------------------|
D|--11------------------------------------|
A|--11------------------------------------|
D|--------------------2--4--6-------------|
B|--2--4--5--4--5--7----------------------|

    T
E|----------------------------------------|
B|--9-------------------------------------|
G|----------------------------------------|
D|----------------------------------------|
A|--8-------------------------------------|
D|--------------------2--4--6--4--6--7----|
B|--2--4--5--4--5--7----------------------|

    T       T            T
E|--9\7--------------------------|
B|-----------------------7-------|
G|----------9\7/9----------------|
D|-------------------------------|
A|-------------------------------|
D|-------------------------------|
B|--3----------------------------|

    T     T        T     T     T
E|---------------------------------------||
B|-----------------7---------------------||
G|--7--------------------7--------------o||
D|--------7--------------------7\6-------||
A|--------------------------------------o||
D|---------------------------------------||
B|---------------------------------------||

*shlappity shlap*

************************************

| /  Slide up
| \  Slide down

************************************
Suggest correction
comments
print report bad tab
guest
You may want to rate the tab now too:
select rating
Wanna post a correction for this tab? Suggest correction