Oops, an error
Loading. Please wait.

So Alone Tab

2,867 views 3 this week
no commentswrite comment
1 2 3 4 5
please rate
add to favorites
launch autoscroll
font size
0
reset
how to read this tab
guitar tuner
Tab Pro tools
  • play this tab
  • loop segment
  • change instrument
  • show fretboard
  • metronome
×
Best way to learn
"So Alone"
Autoscroll
slow
fast
+/-
esc
set tempo
stop
Contributor
Difficulty
Tuning
novice
D# G# C# F# A# D#
Hi, I'm Gabriel I really like this song by Anna Blue but I never saw any guitar 
tabs so here is mine. 

Its Half Step Down.

x = palm mute   \\ pick slide

So Alone - Anna Blue

This part with Lyrics and 2nd part just music.
___________________________________________

 My face against the window pane
 A tear for every drop of rain

[Part1]                                                          
Eb]-------------------------------------------------------------]
Bb]-------------------------------------------------------------]
Gb]--------------44----55----77----------44----55----22---------]
Db]--------22----44----55----77----22----44----55----22----22---] X2 
Ab]\\\\----22----22----33----55----22----22----33----00----22---]    
Eb]\\\\----00----------------------00----------------------00---]    
  (Pickslide only once)

[Start Playing Part1]
 I am so lonely and so sad
 You're the reason that I'm feeling bad
 I am so lonely and so sad
 Living in a dream I've never had.....

[Part2]
Eb]------------------------------------------]
Bb]------------------------------------------]
Gb]------------444444----555555----222222----]
Db]--222222----444444----555555----222222----]   x2
Ab]--222222----222222----333333----000000----]
Eb]--000000----------------------------------]
     xxxxxx    xxxxxx    xxxxxx    xxxxxx   

[Start playing Part2]
 My face against the window pane
 A tear for every drop of rain
 I'm living like already I have died
 Have died.....
 
[Part3]
Eb]--------------------------------------------------------]
Bb]--------------------------------------------------------]
Gb]----------------444444-4------555555-5------222222-2----]
Db]--222222-2------444444-4------555555-5------222222-2----]   x2
Ab]--222222-2------222222-2------333333-3------000000-0----]
Eb]--000000-0----------------------------------------------]
     xxxxxx        xxxxxx        xxxxxx        xxxxxx   

[Start playing Part3]
 Emptiness a present past
 A silent scream to shatter glass
 I have to go; it's time for me to fly


[Part1]
Eb]--------------------------------------------------------]
Bb]--------------------------------------------------------]
Gb]--------44----55----77----------44----55----22----------]
Db]--22----44----55----77----22----44----55----22-----22---]
Ab]--22----22----33----55----22----22----33----00-----22---]
Eb]--00----------------------00-----------------------00---]
 
[Start Playing Part1]
 I am so lonely and so sad
 You're the reason that I'm feeling bad
 I am so lonely and so sad
 Living in a dream I've never had.....


(Wake me with your kiss)


 Who will care if I'm not here?
 If suddenly I disappeared?
 No one's gonna notice it at all
 
(Guitar Pause)


[Part2]
Eb]------------------------------------------]
Bb]------------------------------------------]
Gb]------------444444----555555----222222----]
Db]--222222----444444----555555----222222----]  
Ab]--222222----222222----333333----000000----]
Eb]--000000----------------------------------]
     xxxxxx    xxxxxx    xxxxxx    xxxxxx   

[Part2 Alternate Ending]
Eb]----------------------------------------------]
Bb]------------------------12-12-12--14-14-14----]
Gb]------------44----55----12-12-12--14-14-14----]
Db]--222222----44----55----10-10-10--12-12-12----]  
Ab]--222222----22----33--------------------------]
Eb]--000000--------------------------------------]
     xxxxxx          


[Start Playing Part2]
 Dying flowers in my hand
 I'm vanishing from where I stand
 It isn't yet too late to get the truth


[Part1]                                                          
Eb]-------------------------------------------------------------]
Bb]-------------------------------------------------------------]
Gb]--------------44----55----77----------44----55----22---------]
Db]--------22----44----55----77----22----44----55----22----22---] X2 
Ab]\\\\----22----22----33----55----22----22----33----00----22---]    
Eb]\\\\----00----------------------00----------------------00---]    
  (Pickslide only once)

[Start Playing Part1]
 I am so lonely and so sad
 You're the reason that I'm feeling bad
 I am so lonely and so sad
 Living in a dream I've never had.....


[Part1]                                                          
Eb]----------------------------------------------------------]
Bb]----------------------------------------------------------]
Gb]----------44----55----77----------44----55----22----------] x2
Db]----22----44----55----77----22----44----55----22----22----] pause 
Ab]----22----22----33----55----22----22----33----00----22----] x2   
Eb]----00----------------------00----------------------00----]    
  

[Start Playing Part1]
 I am so lonely and so sad
 You're the reason that I'm feeling bad
 I am so lonely and so sad
 Living in a dream I've never had.....

(Wake me with your kiss)


*************************************************************

*************************************************************


With just music, no lyrics.


[Part1]                                                    
Eb]-------------------------------------------------------------]
Bb]-------------------------------------------------------------]
Gb]--------------44----55----77----------44----55----22---------]
Db]--------22----44----55----77----22----44----55----22----22---] X2 
Ab]\\\\----22----22----33----55----22----22----33----00----22---]    
Eb]\\\\----00----------------------00----------------------00---]    
  (Pickslide only once)
  "I am so lonely and so sad"


[Part2]
Eb]------------------------------------------]
Bb]------------------------------------------]
Gb]------------444444----555555----222222----]
Db]--222222----444444----555555----222222----]   x2
Ab]--222222----222222----333333----000000----]
Eb]--000000----------------------------------]
     xxxxxx    xxxxxx    xxxxxx    xxxxxx   
  "My face against the window pane"


[Part3]
Eb]--------------------------------------------------------]
Bb]--------------------------------------------------------]
Gb]----------------444444-4------555555-5------222222-2----]
Db]--222222-2------444444-4------555555-5------222222-2----]   x2
Ab]--222222-2------222222-2------333333-3------000000-0----]
Eb]--000000-0----------------------------------------------]
     xxxxxx        xxxxxx        xxxxxx        xxxxxx   
  "Emptiness a present past"


[Part1]
Eb]--------------------------------------------------------]
Bb]--------------------------------------------------------]
Gb]--------44----55----77----------44----55----22----------]
Db]--22----44----55----77----22----44----55----22-----22---]
Ab]--22----22----33----55----22----22----33----00-----22---]
Eb]--00----------------------00-----------------------00---]
  "I am so lonely and so sad"



(Pause)



[Part2]
Eb]------------------------------------------]
Bb]------------------------------------------]
Gb]------------444444----555555----222222----]
Db]--222222----444444----555555----222222----]  
Ab]--222222----222222----333333----000000----]
Eb]--000000----------------------------------]
     xxxxxx    xxxxxx    xxxxxx    xxxxxx   
  "Dying flowers in my hand"


[Part2 Alternate Ending]
Eb]----------------------------------------------]
Bb]------------------------12-12-12--14-14-14----]
Gb]------------44----55----12-12-12--14-14-14----]
Db]--222222----44----55----10-10-10--12-12-12----]  
Ab]--222222----22----33--------------------------]
Eb]--000000--------------------------------------]
     xxxxxx           
 


[Part1]                                                          
Eb]-------------------------------------------------------------]
Bb]-------------------------------------------------------------]
Gb]--------------44----55----77----------44----55----22---------]
Db]--------22----44----55----77----22----44----55----22----22---] X2 
Ab]\\\\----22----22----33----55----22----22----33----00----22---]    
Eb]\\\\----00----------------------00----------------------00---]    
  (Pickslide only once)
  "I am so lonely and so sad"



[Part1]                                                          
Eb]----------------------------------------------------------]
Bb]----------------------------------------------------------]
Gb]----------44----55----77----------44----55----22----------] x2
Db]----22----44----55----77----22----44----55----22----22----] pause
Ab]----22----22----33----55----22----22----33----00----22----] x2   
Eb]----00----------------------00----------------------00----]    
    "I am so lonely and so sad"




Hope you enjoyed it, an awesome song to play.

Unsigned band
http://www.youtube.com/watch?v=9tE31Wd7DF4

https://www.facebook.com/AnnaBlueMusik
comments
We did not receive enough feedback on this tab! Please rate:
print report bad tab
1 2 3 4 5
I want to post or [tab]
guest
You may want to rate the tab now too:
select rating
Please do not post tabs as comments. Select "correction" instead!