Oops, an error
Loading. Please wait.

A Summer In Ohio ukulele

4,078 views 90 this week
3 commentsread comments
1 2 3 4 5
x 5
add to favorites
×
Save as Personal and add changes to this tab that will be seen only by you. Learn more ›
×
You can save this tab as Personal to edit and correct it or add notes. All changes will be seen only by you. Learn more »
launch autoscroll
font size
0
reset
transpose
0
reset
display chords
guitar tuner
edit
Autoscroll
slow
fast
+/-
esc
set tempo
stop
Author
Difficulty
About this tab version
This version is a ukulele tab that has the intro riff and chords used throughout the song. Was this info helpful? Yes No
Strumming
There is no strumming pattern for this song yet. and get +5 IQ
[Intro]                                            
A|--3-0---0----------|-------------------|
E|--1---3---3-1------|--------1-----3/5--|
C|--0-----------3-2--|--0-2-3------------|
G|-------------------|-------------------|

     Bbmaj7  Bb6        Gdim7                 Cm7               F7
A|---5---5---5---5---|---4---4---4---4---|---3---3---3---3---|---3---3---3---3---|
E|---5---5---3---3---|---3---3---3---3---|---3---3---3---3---|---1---1---1---1---|
C|---5---5---5---5---|---4---4---4---4---|---3---3---3---3---|---3---3---3---3---|
G|---3---3---3---3---|---3---3---3---3---|---3---3---3---3---|---2---2---2---2---|

     Bbmaj7  Bb6        Gdim7                 Cm7               F7
A|---5---5---5---5---|---4---4---4---4---|---3---3---3---3---|---0---1------3----|
E|---5---5---3---3---|---3---3---3---3---|---3---3---3---3---|---1---3------5----|
C|---5---5---5---5---|---4---4---4---4---|---3---3---3---3---|-------------------|
G|---3---3---3---3---|---3---3---3---3---|---3---3---3---3---|-------------------|


/ - Slide-up


            
            
Suggest correction
Creating personal tab
Creating personal tab
You can edit any tab online and save it as your Personal.

You can edit, replace or remove any tab part or add personal notes – all changes will be seen only by you.

Personal tabs can be accessed anytime from any device, even offline.
Learn more »
comments
print report bad tab
3 comments total.
0 reply
eadie8.ec 54 Mar 19, 2017 11:53 AM

didn't like this contribution

0 reply
eadie8.ec 54 Mar 31, 2017 05:26 PM

didn't like this contribution

0 reply
lilianajpotter 59 Apr 11, 2017 03:08 PM

awesome, thank you very much for helping me learn this!

guest
You may want to rate the tab now too:
select rating
Wanna post a correction for this tab? Suggest correction