Oops, an error
Loading. Please wait.

Wreck Of The Day ukulele

version 2
version 2

Whole song

94 views 3 this week
no commentswrite comment
1 2 3 4 5
3 more votes to show rating
add to favorites
×
Save as Personal and add changes to this tab that will be seen only by you. Learn more ›
×
You can save this tab as Personal to edit and correct it or add notes. All changes will be seen only by you. Learn more »
launch autoscroll
font size
0
reset
transpose
0
reset
display chords
guitar tuner
edit
Autoscroll
slow
fast
+/-
esc
set tempo
stop
Author
Strumming
There is no strumming pattern for this song yet. and get +5 IQ
Ukulele tab version. See lyrics below for where each part is played.

[Intro]

A||---------------------------------| 
E||-------0------------------0------|
C||--0------------------0-----------|
G||------------0-----------------0--|

|-------2----5---------------2----5--|
|--3--------------------3------------|
|------------------------------------|
|------------------------------------|

|------------0--------------------0--|
|-------2--------------------2-------|
|--3--------------------3------------|
|------------------------------------|

|------------2--------------------2--|
|-------3--------------------3-------|
|--4--------------------4------------|
|------------------------------------|


[Verse 1]

|------------------------------------|
|-------0--------------------0-------|
|--0--------------------0------------|
|------------0--------------------0--|

|-------2----5---------------2----5--|
|--3--------------------3------------|
|------------------------------------|
|------------------------------------|
                                           x2
|------------0--------------------0--|
|-------2--------------------2-------|
|--3--------------------3------------|
|------------------------------------|

|------------2--------------------2--|
|-------3--------------------3-------|
|--4--------------------4------------|
|------------------------------------|


[Chorus 1]

|------------------------------------|
|-------0--------------------0-------|
|--0--------------------0------------|
|------------0--------------------0--|

|------------0--------------------0--|
|-------2--------------------2-------|
|--3--------------------3------------|
|------------------------------------|
                                           x2
|------------2--------------------2--|
|-------3--------------------3-------|
|--4--------------------3------------|
|------------------------------------|

|------------2--------------------2--|
|-------3--------------------3-------|
|--2--------------------1------------|
|------------------------------------|


[Post-Chorus 1]

|------------------------------------|
|-------0--------------------0-------|
|--0--------------------0------------|
|------------0--------------------0--|

|------------------------------------|
|-------0--------------------0-------|
|--1--------------------1------------|
|------------0--------------------0--|

|------------------------------------|
|-------2--------------------2-------|
|--2--------------------2------------|
|------------0--------------------0--|

|------------------------------------|
|-------2--------------------2-------|
|--2--------------------2------------|
|------------0--------------------0--|


[Verse 2]

|------------------------------------|
|-------0--------------------0-------|
|--0--------------------0------------|
|------------0--------------------0--|

|-------2----5---------------2----5--|
|--3--------------------3------------|
|------------------------------------|
|------------------------------------|
                                           x2
|------------0--------------------0--|
|-------2--------------------2-------|
|--3--------------------3------------|
|------------------------------------|

|------------2--------------------2--|
|-------3--------------------3-------|
|--4--------------------4------------|
|------------------------------------|


[Chorus 2]

|------------------------------------|
|-------0--------------------0-------|
|--0--------------------0------------|
|------------0--------------------0--|

|------------0--------------------0--|
|-------2--------------------2-------|
|--3--------------------3------------|
|------------------------------------|
                                           x2
|------------2--------------------2--|
|-------3--------------------3-------|
|--4--------------------3------------|
|------------------------------------|

|------------2--------------------2--|
|-------3--------------------3-------|
|--2--------------------1------------|
|------------------------------------|


[Post-Chorus 2]

|------------------------------------|
|-------0--------------------0-------|
|--0--------------------0------------|
|------------0--------------------0--|

|------------------------------------|
|-------0--------------------0-------|
|--1--------------------1------------|
|------------0--------------------0--|

|------------------------------------|
|-------2--------------------2-------|
|--2--------------------2------------|
|------------0--------------------0--|

|------------------------------------|
|-------2--------------------2-------|
|--2--------------------2------------|
|------------0--------------------0--|


[Solo]

|--7----2----3----------2-3-5---------------|
|------------------------------3---2---0----|
|----------------------------------------3--|  x2
|-------------------------------------------|


[Bridge]

|------------2--------------------2--|
|-------3--------------------3-------|
|--4--------------------3------------|
|------------------------------------|

|------------2--------------------2--|
|-------3--------------------3-------|
|--2--------------------1------------|
|------------------------------------|
                                           x2
|------------------------------------|
|-------0--------------------0-------|
|--0--------------------0------------|
|------------0--------------------0--|

|------------0--------------------0--|
|-------2--------------------2-------|
|--3--------------------3------------|
|------------------------------------|


[Interlude]

|------------------------------------|
|-------0--------------------0-------|
|--0--------------------0------------|
|------------0--------------------0--|

|-------2----5---------------2----5--|
|--3--------------------3------------|
|------------------------------------|
|------------------------------------|
                                           x2
|------------0--------------------0--|
|-------2--------------------2-------|
|--3--------------------3------------|
|------------------------------------|

|------------2--------------------2--|
|-------3--------------------3-------|
|--4--------------------4------------|
|------------------------------------|


[Verse 3]

|------------------------------------|
|-------0--------------------0-------|
|--0--------------------0------------|
|------------0--------------------0--|

|-------2----5---------------2----5--|
|--3--------------------3------------|
|------------------------------------|
|------------------------------------|
                                           x2
|------------0--------------------0--|
|-------2--------------------2-------|
|--3--------------------3------------|
|------------------------------------|

|------------2--------------------2--|
|-------3--------------------3-------|
|--4--------------------4------------|
|------------------------------------|


[Chorus 3]

|------------------------------------|
|-------0--------------------0-------|
|--0--------------------0------------|
|------------0--------------------0--|

|------------0--------------------0--|
|-------2--------------------2-------|
|--3--------------------3------------|
|------------------------------------|
                                           x2
|------------2--------------------2--|
|-------3--------------------3-------|
|--4--------------------3------------|
|------------------------------------|

|------------2--------------------2--|
|-------3--------------------3-------|
|--2--------------------1------------|
|------------------------------------|


[Post-Chorus 3]

|------------------------------------|
|-------0--------------------0-------|
|--0--------------------0------------|
|------------0--------------------0--|

|------------------------------------|
|-------0--------------------0-------|
|--1--------------------1------------|
|------------0--------------------0--|

|------------------------------------|
|-------2--------------------2-------|
|--2--------------------2------------|
|------------0--------------------0--|

|------------------------------------|
|-------2--------------------2-------|
|--2--------------------2------------|
|------------0--------------------0--|



[Verse 1]
Driving away from the wreck of the day
And the light's always red in the rear-view.
Desperately close to a coffin of hope
I'd cheat destiny just to be near you.

[Chorus 1]
And if this is givin' up
Then I'm givin' up.
If this is givin' up
Then I'm givin' up, givin' up.

[Post-Chorus 1]
On love, on love

[Verse 2]
Driving away from the wreck of the day
And I'm thinking 'bout calling on Jesus.
'Cause love doesn't hurt, so I know I'm not fallin' in love
I'm just fallin' to pieces

[Chorus 2]
And if this is givin' up
Then I'm givin' up.
If this is givin' up
Then I'm givin' up, givin' up.

[Post-Chorus 2]
On love, on love

[Solo]

[Bridge]
And maybe I'm not off of being a victim of love
All my resistance will never be distance enough

[Interlude]

[Verse 3]
Driving away from the wreck of the day
And it's finally quiet in my head.
Driving alone
I'm finally on my way home to the comfort of my bed.

[Chorus 3]
And if this is givin' up
Then I'm givin' up.
If this is givin' up
Then I'm givin' up, givin' up.

[Post-Chorus 3]
On love, on love

            
            
Suggest correction
Creating personal tab
Creating personal tab
You can edit any tab online and save it as your Personal.

You can edit, replace or remove any tab part or add personal notes – all changes will be seen only by you.

Personal tabs can be accessed anytime from any device, even offline.
Learn more »
Give kudos to tab author, rate the tab!
1 2 3 4 5
comments
print report bad tab
guest
You may want to rate the tab now too:
select rating
Wanna post a correction for this tab? Suggest correction