Oops, an error
Loading. Please wait.

Better Be Tab

9,686 views 9 this week
no commentswrite comment
1 2 3 4 5
please rate
add to favorites
launch autoscroll
font size
0
reset
how to read this tab
guitar tuner
Autoscroll
slow
fast
+/-
esc
set tempo
stop
Help us to improve Ultimate-Guitar.com Take our survey!
×
ANNA TERNHEIM - BETTER BE
 

 Capo på första bandet (Om du vill spela den akutistka versionen)
 Capo på andra bandet (Om du vill spela som Anna spelar live)
 Capo på tredje bandet (Om du vill spela efter orginalet på skivan)

[Intro]

e|--------------------------------------------------|
B|-----1-----------0------------1-----------0-------|
G|---------2------------2-----------2-----------2---|
D|---2-------2---1--------1---2-------2---1-------1-|
A|-0-----0-----2------2-----0-----0-----2-----2-----|
E|--------------------------------------------------|

e|--------------------------------------------------|
B|-----1-----------0------------1-----------0-------|
G|---------2------------2-----------2-----------2---|
D|---2-------2---1--------1---2-------2---1-------1-|
A|-0-----0-----2------2-----0-----0-----2-----2-----|
E|--------------------------------------------------|

e|-------------------------------------|
B|-----0-----------0-----------0-------|
G|---------2-----------2-----------2---|
D|---1-------1---1-------1---1-------1-|
A|-2-----2-----2-----2-----2-----2-----|
E|-------------------------------------|


[Verse]

e|--------------------------------------------------|
B|-----1-----------0------------1-----------0-------|
G|---------2------------2-----------2-----------2---|
D|---2-------2---1--------1---2-------2---1-------1-|
A|-0-----0-----2------2-----0-----0-----2-----2-----|
E|--------------------------------------------------|

e|-----------------0-------|
B|-----1---------------1---|
G|---------0-----2-------2-|
D|---2-------2-0-----0-----|
A|-3-----3-----------------|
E|-------------------------|

e|--------------------------------------------------|
B|-----1-----------0------------1-----------0-------|
G|---------2------------2-----------2-----------2---|
D|---2-------2---1--------1---2-------2---1-------1-|
A|-0-----0-----2------2-----0-----0-----2-----2-----|
E|--------------------------------------------------|

e|-----------------0-----------3-----------3--------|
B|-----1---------------1-----------1-----------1----|
G|---------0-----2-------2---2-------2---2-------3--|
D|---2-------2-0-----0-----3-----3-----3-----3------|
A|-3-----3------------------------------------------|
E|--------------------------------------------------|


[Refräng]

e|-----------------------------3-----------3--------|
B|-----1-----------0---------------1-----------1----|
G|---------0-----------0-----2-------2---2-------2--|
D|---2-------2---0-------0-3-----3-----3-----3------|
A|-3-----3------------------------------------------|
E|-------------3-----3------------------------------|

e|-----------------------------3-----------3--------|
B|-----1-----------0---------------1-----------1----|
G|---------0-----------0-----2-------2---2-------2--|
D|---2-------2---0-------0-3-----3-----3-----3------|
A|-3-----3------------------------------------------|
E|-------------3-----3------------------------------|

e|-----------------------------3-----------3--------|
B|-----1-----------0---------------1-----------1----|
G|---------0-----------0-----2-------2---2-------2--|
D|---2-------2---0-------0-3-----3-----3-----3------|
A|-3-----3------------------------------------------|
E|-------------3-----3------------------------------|

e|--------------------------------------------------|
B|-----1-----------0-----------1-----------1--------|
G|---------0-----------0-----------2-----------0----|
D|---2-------2---0-------0---2-------2---2-------2--|
A|-3-----3-----------------0-----0-----3-----3------|
E|-------------3-----3------------------------------|

e|-------------------------|
B|-----0-----------0-------|
G|---------0-----------0---|
D|---0-------0---0-------0-|
A|-------------------------|
E|-3-----3-----3-----3-----|


[Interlude 1]

e|---------------------------------------------|
B|---1-----------0---------1-----------0-------|
G|---2---2-----------2-----2---2-----------2---|
D|---------2---1-------1---------2---1-------1-|
A|-0---0-----2-----2-----0---0-----2-----2-----|
E|---------------------------------------------|


[Interlude 2]

e|--------------------------------------------------|
B|-----1-----------0------------1-----------0-------|
G|---------2------------2-----------2-----------2---|
D|---2-------2---1--------1---2-------2---1-------1-|
A|-0-----0-----2------2-----0-----0-----2-----2-----|
E|--------------------------------------------------|


[Bridge]

e|--------------------------------------------------|
B|-----1----------1-----------0-----------0---------|
G|--------2-----------0-----------0-----------0-----|
D|---2------2---2-------2---0-------0---0-------0---|
A|-0----0-----3-----3-------------------------------|
E|------------------------3-----3-----3-----3-------|

e|--------------------------------------------------|
B|-----1------------1-----------0----------0--------|
G|---------2------------2----------0-----------0----|
D|---2-------2---3--------3---0------0---0-------0--|
A|-0-----0-----3------3-----------------------------|
E|--------------------------3----3-----3-----3------|


[Intro] Am H7 Am H7 :/ H7


[Verse 1]

 Am     H7    Am    H7        C         Dm
Me and you better laugh in 20 years from now
     Am      H7     Am        H7 
with some perspective and dedication
       C            Dm   Fadd9 
I will find somebody new


[Chorus 1]

              C       G        Fadd9
But he'd better be someone special
            C     G         Fadd9
He'd better be coming very soon
       C       G        Fadd9
Better be for real this time
     C         G            Am C G
Oh I know it always was with you


[Interlude 1] (Am H7 Am H7)


[Verse 2]

You or no one I hope I'm wrong before I die 
of boredom I want more than days and nights
when I amuse myself alone


[Chorus 2]

But he'd better be someone special
he'd better be devoted just like you
it'd better be for real this time
Oh I know it always was with you


[Bridge]

 Am  C  G
With you
 Am  F  G
With you
      Am H7 Am H7 (...direkt in på [MELLANSPEL 2])
With you


[Interlude 2]


[Verse 3]

Friends forever oh no another girl will 
change your mind in less than half a summer 
so before you fall in love
I wonder when you asked for something
that I couldn't give you
more of me and you
I talk as if it's now but nothing is new


[Chorus 3]

She'd better be someone special
She'd better be more in love than me
If I was your brightest hour
she is now as far as I can see


[Bridge 2]

 Am C G
See...
 Am     F       G
As far as I can see
 Am     F       G
As far as I can see
                Am
Well she'd better be...

 Am             H7
Well she'd better be
 Am             H7
Well she'd better be


Från Deukalion:
Det är lite småslarvigt här och där.
Men det som ni tycker fattas får ni väl hitta på.
Suggest correction
Give kudos to tab author, rate the tab!
1 2 3 4 5
comments
print report bad tab
guest
You may want to rate the tab now too:
select rating
Please do not post tabs as comments. Select "correction" instead!