Oops, an error
Loading. Please wait.

My Heart Still Beats For You Tab

2,763 views 6 this week
no commentswrite comment
1 2 3 4 5
excellent!
x 5
add to favorites
launch autoscroll
font size
0
reset
how to read this tab
guitar tuner
Tab Pro tools
  • play this tab
  • loop segment
  • change instrument
  • show fretboard
  • metronome
Autoscroll
slow
fast
+/-
esc
set tempo
stop
Contributor
-------------------------------------------------------------------------
MY HEART STILL BEATS FOR YOU - Anna Ternheim
-------------------------------------------------------------------------
Tabbed by: Kengus

Standard tuning                NB! There are quite a few minor tweaks here
Capo on second fret!               and there in the progression, small
                                   additions that embellish the basic
INTRO (repeat this x4)             picking pattern. I'm not 100% sure I
Cmaj7  Em                          got all of them, but it's pretty close.

VERSE I (repeat this x2)
   CM7omit3                          Em
e|---------------------------------------------------------------------|
B|-----0-----0----------0-----0----------0-----0----------0-----0------|
G|---0-----0-----0----0-----0-----0----0-----0-----0----0-----0-----0--|
D|-----------------------------------2-----2-----2----2-----2-----2----|
A|-3-----3-----3----3-----3-----3--------------------------------------|
E|---------------------------------------------------------------------|

INTERLUDE (same progression, again repeat x2)
   CM7omit3                          Em
e|---------------------------------------------------------------------|
B|-----0-----0----------0-----0----------0-----0----------0-----0------|
G|---0-----0-----0----0-----0-----0----0-----0-----0----0-----0-----0--|
D|-----------------------------------2-----2-----2----2-----2-----2----|
A|-3-----3-----3----3-----3-----3--------------------------------------|
E|---------------------------------------------------------------------|

VERSE II (slightly different ending)
   CM7omit3                          Em
e|---------------------------------------------------------------------|
B|-----0-----0----------0-----0----------0-----0----------0-----0------|
G|---0-----0-----0----0-----0-----0----0-----0-----0----0-----0-----0--|
D|-----------------------------------2-----2-----2----2-----2-----2----|
A|-3-----3-----3----3-----3-----3--------------------------------------|
E|---------------------------------------------------------------------|
   CM7omit3                          Em
e|---------------------------------------------------------------------|
B|-----0-----0----------0-----0----------0-----0----------0-----0------|
G|---0-----0-----0----0-----0-----0----0-----0-----0----0-----0--------|
D|-----------------------------------2-----2-----2----2-----2-------2--|
A|-3-----3-----3----3-----3-----3---------------------------------0----|
E|---------------------------------------------------------------------|

CHORUS I (+ INTERLUDE)
   C                Dadd4            Em
e|---------------------------------------------------------------------|
B|---------------------------------------------------------------------|
G|-----0-----0----------0-----0----------0-----0----------0-----0------|
D|---2-----2-----2----4-----4-----4----2-----2-----2----2-----2-----2--|
A|-3-----3-----3----5-----5-----5----------2-----2----------2-----2----|
E|-----------------------------------0----------------0----------------|
   C                Dadd4            Em
e|---------------------------------------------------------------------|
B|---------------------------------------------------------------------|
G|-----0-----0----------0-----0----------0-----0----------0-----0------|
D|---2-----2-----2----4-----4-----4----2-----2-----2----2-----2-----2--|
A|-3-----3-----3----5-----5-----5----------2-----2----------2-----2----|
E|-----------------------------------0----------------0----------------|
   C                Dadd4            CM7omit3
e|---------------------------------------------------------------------|
B|---------------------------------------0-----0----------0-----0------|
G|-----0-----0----------0-----0--------0-----0-----0----0-----0-----0--|
D|---2-----2-----2----4-----4-----4------------------------------------|
A|-3-----3-----3----5-----5-----5----3-----3-----3----3-----3-----3----|
E|---------------------------------------------------------------------|
   Em                                CM7omit3
e|---------------------------------------------------------------------|
B|-----0-----0----------0-----0----------0-----0----------0-----0------|
G|---0-----0-----0----0-----0-----0----0-----0-----0----0-----0-----0--|
D|-2-----2-----2----2-----2-----2--------------------------------------|
A|-----------------------------------3-----3-----3----3-----3-----3----|
E|---------------------------------------------------------------------|
   Em
e|-----------------------------------|
B|-----0-----0----------0-----0------|
G|---0-----0-----0----0-----0-----0--|
D|-2-----2-----2----2-----2-----2----|
A|-----------------------------------|
E|-----------------------------------|

VERSE III (longer)
   CM7omit3                          Em
e|---------------------------------------------------------------------|
B|-----0-----0----------0-----0----------0-----0----------0-----0------|
G|---0-----0-----0----0-----0-----0----0-----0-----0----0-----0-----0--|
D|-----------------------------------2-----2-----2----2-----2-----2----|
A|-3-----3-----3----3-----3-----3--------------------------------------|
E|---------------------------------------------------------------------|
   CM7omit3                          Em
e|---------------------------------------------------------------------|
B|-----0-----0----------0-----0----------0-----0----------0-----0------|
G|---0-----0-----0----0-----0-----0----0-----0-----0----0-----0--------|
D|-----------------------------------2-----2-----2----2-----2-------2--|
A|-3-----3-----3----3-----3-----3---------------------------------0----|
E|---------------------------------------------------------------------|
   CM7omit3                          Em
e|---------------------------------------------------------------------|
B|-----0-----0----------0-----0----------0-----0----------0-----0------|
G|---0-----0-----0----0-----0-----0----0-----0-----0----0-----0-----0--|
D|-----------------------------------2-----2-----2----2-----2-----2----|
A|-3-----3-----3----3-----3-----3--------------------------------------|
E|---------------------------------------------------------------------|
   CM7omit3                          Em
e|-------------------------------------------------------|
B|-----0-----0----------0-----0----------0-----0---------|
G|---0-----0-----0----0-----0-----0----0-----0-----0-----|
D|-----------------------------------2-----2-----2----2--|
A|-3-----3-----3----3-----3-----3------------------------|
E|-------------------------------------------------------|

CHORUS II (altered, longer)
   C                Dadd4            Em
e|---------------------------------------------------------------------|
B|----------------------------3----------------------------------------|
G|-----0-----0----------0----------------0-----0----------0-----0------|
D|---2-----2-----2----4-----4-----4----2-----2-----2----2-----2-----2--|
A|-3-----3-----3----5-----5-----5----------2-----2----------2-----2----|
E|-----------------------------------0----------------0----------------|
   C                Dadd4            Em
e|---------------------------------------------------------------------|
B|-----------1----------------3----------------------------------------|
G|-----0----------------0----------------0-----0----------0-----0------|
D|---2-----2-----2----4-----4-----4----2-----2-----2----2-----2-----2--|
A|-3-----3-----3----5-----5-----5----------2-----2----------2-----2----|
E|-----------------------------------0----------------0----------------|
   C                Dadd4            Em
e|---------------------------------------------------------------------|
B|-----------1----------------3----------------0----------------0------|
G|-----0----------------0----------------0----------------0------------|
D|---2-----2-----2----4-----4-----4----2-----2-----2----2-----2-----2--|
A|-3-----3-----3----5-----5-----5----------2-----2----------2-----2----|
E|-----------------------------------0----------------0----------------|
   C                Dadd4            Em
e|---------------------------------------------------------------------|
B|-----------1----------------3----------------0----------------0------|
G|-----0----------------0----------------0----------------0------------|
D|---2-----2-----2----4-----4-----4----2-----2-----2----2-----2-----2--|
A|-3-----3-----3----5-----5-----5----------2-----2----------2-----2----|
E|-----------------------------------0----------------0----------------|
   C                Dadd4            C              straight into OUTRO...
e|---------------------------------------------------------------------|
B|-----------1----------------3----------------1----------------1------|
G|-----0----------------0----------------0---------0------0---------0--|
D|---2-----2-----2----4-----4-----4----2-----2---2------2-----2---2----|
A|-3-----3-----3----5-----5-----5----3-----3----------3-----3----------|
E|---------------------------------------------------------------------|

OUTRO
   Em               Dadd4            C
e|---------------------------------------------------------------------|
B|-----------0----------------3----------------1----------------1------|
G|-----0---------0------0----------------0---------0------0---------0--|
D|---2-----2---2------4-----4---4-0----2-----2---2------2-----2---2----|
A|-------2----------5-----5----------3-----3----------3-----3----------|
E|-0-------------------------------------------------------------------|
   Em               A7sus4add6       C
e|---------------------------------------------------------------------|
B|-----------0----------------3----------------1----------------1------|
G|-----0---------0------0----------------0---------0------0---------0--|
D|---2-----2---2------4-----4---4-0----2-----2---2------2-----2---2----|
A|-------2----------0-----0----------3-----3----------3-----3----------|
E|-0-------------------------------------------------------------------|
   Em               Dadd4            C
e|---------------------------------------------------------------------|
B|-----------0----------------3----------------1----------------1------|
G|-----0---------0------0---------0------0---------0------0---------0--|
D|---2-----2---2------4-----4---4------2-----2---2------2-----2---2----|
A|-------2----------5-----5----------3-----3----------3-----3----------|
E|-0-------------------------------------------------------------------|
   Em               A7sus4add6       C
e|---------------------------------------------------------------------|
B|-----0----------------------3----------------1----------------1------|
G|-----------0----------0----------------0---------0------0---------0--|
D|---2-----2-----2----4-----4---4-0----2-----2---2------2-----2---2----|
A|-------2-----0----0-----0----------3-----3----------3-----3----------|
E|-0-------------------------------------------------------------------|

This last section x6

   Em               Dadd4            C
e|---------------------------------------------------------------------|
B|-----------0----------------3----------------1----------------1------|
G|-----0---------0------0---------0------0---------0------0---------0--|
D|---2-----2---2------4-----4---4------2-----2---2------2-----2---2----|
A|-------2----------5-----5----------3-----3----------3-----3----------|
E|-0-------------------------------------------------------------------|

***

INTRO
Cmaj7  Em  x4

VERSE I
CM7omit3                            Em
   Hard to believe how people move, falling out of love with you
CM7omit3                          Em
   Tearing down all the walls and love, the chaos

INTERLUDE
CM7omit3  Em  x2

VERSE II
CM7omit3                            Em
   Thought again of driving by, the place we met, you and I
CM7omit3                             Em
   Where it started, how we lived, together always

CHORUS I
     C         Dadd4      Em
My heart still beats for you
     C         Dadd4      Em
My heart still beats for you
       C       Dadd4    CM7omit3...
After all, it's always you

INTERLUDE
...Em  CM7omit3  Em

VERSE III
CM7omit3                          Em
   You came down hard that summer,    I started to dance, remember
CM7omit3                           Em
   Everything, not a thought of you,   and I lied a lot too
CM7omit3   Em                     CM7omit3   Em
               Maybe to forget you

CHORUS II
     C         Dadd4      Em
My heart still beats for you
     C         Dadd4      Em
My heart still beats for you
     C         Dadd4      Em
My heart still beats for you
     C         Dadd4      Em
My heart still beats for you
       C       Dadd4    C...
After all, it's always you

OUTRO
    ...Em     Dadd4  C
I come back too
       Em      A7sus4add6  C
I come back to you
       Em      Dadd4  C
I come back to you
       Em      A7sus4add6  C
I come back to you.

Em  Dadd4  C  x6

=========================================================================
Comment, rate, appreciate!
comments
print report bad tab
I want to post or [tab]
guest
You may want to rate the tab now too:
select rating
Please do not post tabs as comments. Select "correction" instead!