Oops, an error
Loading. Please wait.

My Heart Still Beats For You tab

version 2
version 2

Whole song

43 views 1 this week
no commentswrite comment
1 2 3 4 5
3 more votes to show rating
add to favorites
×
Save as Personal and add changes to this tab that will be seen only by you. Learn more ›
×
You can save this tab as Personal to edit and correct it or add notes. All changes will be seen only by you. Learn more »
launch autoscroll
font size
0
reset
how to read this tab
guitar tuner
edit
Autoscroll
slow
fast
+/-
esc
set tempo
stop
Capo på 2:a bandet

[Intro/Verse]

e|-------------------------------------------------|
B|-------------------------------------------------|
G|-----6-----6---6-----6-----6---6-----6-----6---6-|
D|---7-----7---------7-----7---------7-----7-------|
A|-5-----5-----5---5-----5-----5---9-----9-----9---|
E|-------------------------------------------------|
  
   Hard to believe how people move, Fallin out of

e|------------------|
B|------------------|
G|-----6-----6---6--|
D|---7-----7--------|
A|-9-----9-----9----|
E|------------------|

   love with you …


[Refräng]

e|--------------------------------------------------|
B|---------1---------------5---------------0--------|
G|-----0-----0---0-----0-----0---0-----0-----0---0--|
D|---2---2-----2-----6---6-----6-----2---2-----2----|
A|-3---------------7--------------------------------|
E|---------------------------------0----------------|
  
  My heart still beats for you…

e|------------------|
B|---------0--------|
G|-----0-----0---0--|
D|---2---2-----2----|
A|------------------|
E|-0----------------|


[Outro]

e|-------------------------------------------------|
B|---------0---------------5---------------1-------|
G|-----0-----0---0-----0-----0---0-----0-----0--0--|
D|---2---2-----2-----6---6-----6-----2---2----2----|
A|-----------------7---------------3---------------|
E|-0-----------------------------------------------|

  Come back…


TEXT

[Verse]

Hard to believe how people move, Falling out of love with you
Tearing down all the walls,And love the chaos
I thought again of driving by,The place we met, you and I
Where it started, and how we lived,Together always


[Chorus]

My heart still beats for you,My heart still beats for you
After all, it's always you


[Verse]

You came down hard that summer
I started to dance, I remember everything
But not a thought of you, And I lied a lot too
Maybe to forget you


[Chorus]

My heart still beats for you,My heart still beats for you
My heart still beats for you,My heart still beats for you
After all, it's always you


[Outro]

I come back to
I come back to you
I come back to you
I come back to you

            
            
Suggest correction
Creating personal tab
Creating personal tab
You can edit any tab online and save it as your Personal.

You can edit, replace or remove any tab part or add personal notes – all changes will be seen only by you.

Personal tabs can be accessed anytime from any device, even offline.
Learn more »
Give kudos to tab author, rate the tab!
1 2 3 4 5
comments
print report bad tab
guest
Wanna post a correction for this tab? Suggest correction