Oops, an error
Loading. Please wait.

Im Addicted To You Bass Tab

1,094 views 1 this week
no commentswrite comment
1 2 3 4 5
x 3
add to favorites
launch autoscroll
font size
0
reset
guitar tuner
Autoscroll
slow
fast
+/-
esc
set tempo
stop
Help us to improve Ultimate-Guitar.com Take our survey!
×
Author
Difficulty
intermediate
-----------------------------------------------------------------------------
                             I`m addicted to you - Anna Tsuchiya
-----------------------------------------------------------------------------
Tabbed by: Andu Needle
E-mail: sulfur_in_my_lungs@yahoo.com

Intro(bass comes in at the second riff):

G|-----------------------------------------------------|
D|-----------------------------------------------------|
A|-666-55-33-------------------------------------------|
E|-----------------------------------------------------|

Main riff:

G|------------------------------------------------------|
D|------------------------------------------------------|
A|---------------------------------666-55-333-----------|
E|-555-6-333--555-6-333--555-6-333----------------------|(x2)

Verse:

G|------------------------------------------------------|
D|------------------------------------------------------|
A|------------------------------------------------------|
E|-555-6------------------------------------------------|(x3)

G|------------------------------------------------------|
D|------------------------------------------------------|
A|------------------------------------------------------|
E|-555-6-333--555-6-333---------------------------------|

G|------------------------------------------------------|
D|------------------------------------------------------|
A|------------------------------------------------------|
E|-555-6------------------------------------------------|(x3)

G|------------------------------------------------------|
D|------------------------------------------------------|
A|-----------666-55-333---------------------------------|
E|-555-6-333--------------------------------------------|

Pre-chorus:

G|------------------------------------------------------|
D|------------------------------------------------------|
A|------------------------------------------------------|
E|-11111111-11111111--33333333-33333333-----------------|(x2)

Chorus:

G|------------------------------------------------------|
D|------------------------------------------------------|
A|-----------------3-33333------------------------------|
E|-5-55555-1-11111---------3-33333----------------------|(x2)

Post chorus:

G|------------------------------------------------------|
D|------------------------------------------------------|
A|-55---------------------------------55----------------|
E|----11-1-1111--555-6-333--555-6-333----1-11-----------|

Main riff x2

Verse 2:

You don`t play the first part with -555-6-. The bass kicks in with this:

G|-------------------------------------------------------|
D|-------------------------------------------------------|
A|-------------------------------------------------------|
E|-555-6-333--555-6-333----------------------------------|

After this:

G|-------------------------------------------------------|
D|-------------------------------------------------------|
A|-------------------------------------------------------|
E|-555-6-------------------------------------------------|(x3)

G|-------------------------------------------------------|
D|-------------------------------------------------------|
A|-----------666-55-33-----------------------------------|
E|-555-6-333---------------------------------------------|

Pre chorus 2 like the first.
Chorus 2 like the first.
Post chorus 2 like the first.

Bridge:

G|--------------------------------------------------------|
D|--------------------------------------------------------|
A|------------------------------------------7-6-5-3-5-3---|
E|-35-56-35-56-xxxx-35-56-35-56-xxxxx-35-56---------------|

G|--------------------------------------------------------|
D|--------------------------------------------------------|
A|--------------------------------------------------------|
E|-555-6-333--555-6-333--555-6-333-66666666---------------| (x2)

Chorus 3 like the other.
Post chorus 3 like the others.

Ending:

G|---------------------------------------------------------|
D|---------------------------------------------------------|
A|---------------------------------666-55-333--------------|
E|-555-6-333--555-6-333--555-6-333-------------------------|(x2)
Suggest correction
Give kudos to tab author, rate the tab!
1 2 3 4 5
comments
print report bad tab
guest
You may want to rate the tab now too:
select rating
Wanna post a correction for this tab? Suggest correction