Oops, an error
Loading. Please wait.

Kuroi Namida Tab

version 1
version 1

Whole song

Interactive

36,377 views 48 this week
4 commentsread comments
1 2 3 4 5
excellent!
x 6
add to favorites
launch autoscroll
font size
0
reset
how to read this tab
guitar tuner
Tab Pro tools
  • play this tab
  • loop segment
  • change instrument
  • show fretboard
  • metronome
×
Best way to learn
"Kuroi Namida"
Autoscroll
slow
fast
+/-
esc
set tempo
stop
Contributor
Title: Kuroi Namida 
Artist: Anna Tsuchiya inspi' NANA (BLACK STONES)
Tabbed by: GloriAnne Rose  

INTRO
e|-----------------------------------------------------|e
b|------0-------------3-----0---------0----------------|g
g|--------0---0---------4-----------0----5-4-----------|b 
D|----2-----2-------4-----4-------5----------5-2-------|D 
A|----------------2-------------3----------------3-5---|A
E|--0--------------------------------------------------|E
(pattern repeated throughout verses)
VERSE I
Em        Bm             CM7    Em         Bm   CM7 
Asu nante konai you ni to negatta yoru, kazoekirenai 
Em            Bm             CM7                  Em        Bm        CM7 
Yume mo ai mo nakushi, ame ni utareta mama, naiteru, naiteru, naiteru... 

BRIDGE I
       Em             Ebaug              G/D       C#m7dim5 
Kazaritsukenaide kono mama no watashi de ikite yuku tame 
CM7      D     G 
Nani ga hitsuyou 
Em         Ebaug               G/D       C#m7dim5 
Jibun sae shinjirezu, nani wo shinjitara ii no 
CM7            A      D         B 
Kotae wa chikasugite mienai 

CHORUS I
      CM7   D 
Kuroi namida nagasu 
Em                   CM7     D           Em 
Watashi ni wa nani mo nakute, kanashisugite 
CM7           D        Em 
Kotoba ni sae nara nakute 
        CM7 D       Em 
Karadajuu ga itami dashite 
       CM7  D          Em 
Taerarenai, hitori de wa 

[little solo with chords going like previously, CM7 - D - Em, and ends with a double Em] 

VERSE II
Em       Bm       CM7   Em               Bm      CM7 
Yonaka ni nakitsukarete, egaita, jibun ja nai jibun no kao 
Em           Bm                   CM7                Em        Bm       CM7 
Yowasa wo kakushita mama, egao wo tsukuru no wa yameyou, yameyou, yameyou... 

BRIDGE II
        Em         Ebaug              G/D        C#m7dim5 
Kazaritsukenaide ikite yuku koto wa kono yo no ichiban 
CM7     D    G 
Muzukashii koto? 
Em          Ebaug               G/D       C#m7dim5 
Anata kara morau nara katachi no nai mono ga ii 
CM7           A         D     B 
Kowareru mono ga mowo iranai 

CHORUS II
       CM7           D     Em 
Kuroi namida nagashi sakendemo 
        CM7   D       Em 
Shiranu kao de ashita wa kite 
CM7         D         Em 
Onaji itami ni butsukaru 
      CM7     D           Em 
Sonna hibi wo tsuzukeru nara 
      CM7      D   Em 
Tooku kiete shimaitai 
       CM7    D    Em 
Wagamama to wakattemo… 

[ Repeat CHORUS I then CHORUS II ]



        E A D g b e 
CM7             x 3 2 0 0 0
Ebaug           0 2 1 0 0 3 
G/D             x x 0 0 0 3 
C#m7dim5        x 4 5 0 0 0 

    CM7      Ebaug      G/D     C#m7dim5 
-----0---------3---------3----------0----- 
-----0---------0---------0----------0----- 
-----0---------0---------0----------0----- 
-----2---------1---------0----------5----- 
-----3---------2---------X----------4----- 
-----X---------0---------X----------X----- 


comments
print report bad tab
4 comments total. Showing first comments.
0 reply
amandax3 wrote on September 24 2007, 05:08 pm

How do you play C#m7dim5 and Ebaug?

Great tab btw! :D

0 reply
Blaze-016 wrote on December 21 2007, 11:55 pm

Awesome XD great job on these tabs, Black Stones tabs are so hard to find :P
Thanks :)

0 reply
nkate wrote on June 25 2013, 07:32 pm

INTRO
e|-----------------------------------------------------|e
b|------0-------------3-----0---------0--1-0-----------|g
g|--------0---0---------4-----------0--------0---------|b
D|----2-----2-------4-----4-------2------------2---0---|D
A|----------------2-------------3----------------3-----|A
E|--0--------------------------------------------------|E

this way the end is much easier :)

I want to post or [tab]
guest
You may want to rate the tab now too:
select rating
Please do not post tabs as comments. Select "correction" instead!