Oops, an error
Loading. Please wait.

Rose Bass Tab

version 1
version 1

Whole song

Interactive

20,088 views 30 this week
1 commentread comment
1 2 3 4 5
please rate
add to favorites
launch autoscroll
font size
0
reset
guitar tuner
Tab Pro tools
  • play this tab
  • loop segment
  • change instrument
  • show fretboard
  • metronome
Autoscroll
slow
fast
+/-
esc
set tempo
stop
Contributor
Intro guitarra x2
tercer timepo entra bajo

G|------8/-----------|
D|-------------------| 
A|-------------------| 
E|-------------------|

G|-0-0-0-0-0-0-0-0-0---1-2-1-|
D|---------------------------| 
A|---------------------------| 
E|---------------------------|

G|-0-0-0-0-0-0-0-0-0-----------|
D|---------------------4444444-| 
A|-----------------------------| 
E|-----------------------------|

When I was darkness at that time
fureteru kuchibiru
heya no katasumi de......
G|-------------------|
D|-------------------| 
A|-------------------| 
E|-------------------|

 I cry

G|-------x------------|
D|-------x------------| 
A|-------x------------| 
E|-------x------------|

mogakeba mogaku hodo tsukisasaru kono kizu
yaburareta yakusoku hurt me
G|-0-0-0-0-0-0-0-0-0---1-2-1-|
D|---------------------------| 
A|---------------------------| 
E|---------------------------|

.......

G|-0-0-0-0-0-0-0-0-0-----------|
D|---------------------4444444-| 
A|-----------------------------| 
E|-----------------------------|

Nobody can save me

               PM
G|--/5-66--66-6-5-5--------|
D|-------------------------| 
A|-------------------------| 
E|-------------------------|

kamisama hitotsu dake
tomete saku you na ............


         PM
G|--66--66-6--5-5--------|
D|-----------------------| 
A|-----------------------| 
E|-----------------------|

my love

G|--5555555555-----------|
D|-----------------------| 
A|-----------------------| 
E|-----------------------|

I need your love. I'm a broken rose

G|----0-x1---8-x1----|
D|-------------------| 
A|-------------------| 
E|-------------------|

maichiru kanashimi your song
ibasho nai kodoku na my life

G|--------------------777777777-666666666--------|
D|----------66-77-66-----------------------------| 
A|-----------------------------------------------| 
E|-----------------------------------------------|
I need your love. I'm broken rose

G|----------56--888888-------|
D|--4x1----------------------| 
A|---------------------------| 
E|---------------------------|


Oh baby, help me from frozen pain
with your smile, your eyes,
and sing me, just for me

G|--------------------777777777-666666666--------|
D|----------66-77-66-----------------------------| 
A|-----------------------------------------------| 
E|-----------------------------------------------|
I wanna need your love...
I'm broken rose
I wanna need your love...

G|---------------0-0---4-2-1-|
D|--4-4-----2-1--------------| 
A|-------2-------------------| 
E|---------------------------|

When you are with me at that time
anata no kage wo oikakete
hadashi de kakenukete stop me

G|--------------------------------------------------------------------|
D|--------------------------------------------------------------------| 
A|--x1----x1---x1---x1---x1--x1--------------------------------11-----| 
E|--13----11---10---11---13--11------10-10-10-10-10--11-11-10---------|

tozaseba tozasu hodo motsuretekukono ai
yuruyaka ni yasashiku kiss me

G|-0-0-0-0-0-0-0-0-0---1-2-1-|
D|---------------------------| 
A|---------------------------| 
E|---------------------------|

.......
G|-0-0-0-0-0-0-0-0-0-----------|
D|---------------------4444444-| 
A|-----------------------------| 
E|-----------------------------|


Nobody can save me

               PM
G|--/5-66--66-6-5-5--------|
D|-------------------------| 
A|-------------------------| 
E|-------------------------|
kogoeru bara no you ni
yasashiku nemuritai.... 

         PM
G|--66--66-6--5-5--------|
D|-----------------------| 
A|-----------------------| 
E|-----------------------|

my tears
G|--5555555555-----------|
D|-----------------------| 
A|-----------------------| 
E|-----------------------|

I need your love. I'm a broken rose

G|----0-x1---6-8-x1----|
D|---------------------| 
A|---------------------| 
E|---------------------|



kareochiru kanashimi my soul
kuzureteku kodoku na little girl


G|-8-8-12-8-6-6-6-x1----5-x1--------------|
D|----------------------------------------| 
A|----------------------------------------| 
E|----------------------------------------|
I need your love. I'm broken rose


G|--2-2--0--------6-6-5--8-x1---|
D|----------4-x1----------------| 
A|------------------------------| 
E|------------------------------|
Oh baby, help me from frozen pain
with your smile, your eyes,
and sing me, just for me


G|--------------------777777777-666666666--------|
D|----------66-77-66-----------------------------| 
A|-----------------------------------------------| 
E|-----------------------------------------------|

I wanna need your love...


G|-----------------------|
D|---0----0---0----0-----| 
A|-----------------------| 
E|-----------------------|

I'm broken rose
I wanna need your love...

G|----------------------------------------------|
D|------------------------------12-10-----------| 
A|--10-1212--10-1212--/14-14-14-----------------| 
E|----------------------------------------------|


G|----0-00-----------|
D|-------------------| 
A|-------------------| 
E|-------------------|


G|-0-0-0-0-0-0-0-0-0---1-2-1-|
D|---------------------------| 
A|---------------------------| 
E|---------------------------|

G|---7-/11-11-12~-----------|
D|--------------------------| 
A|--------------------------| 
E|--------------------------|

nobody can help me
nobody can help me
i am a broken rose


G|----0----0---0----0----|
D|-----------------------| 
A|-----------------------| 
E|-----------------------|
I need your love. I'm a broken rose

G|----0-x1---6-8-x1----|
D|---------------------| 
A|---------------------| 
E|---------------------|
maichiru kanashimi your song
ibasho nai kodoku na my life

G|-8-8-12-8-6-6-6-x1----5-x1--------------|
D|----------------------------------------| 
A|----------------------------------------| 
E|----------------------------------------|

I need your love. I'm broken rose


G|--2-2--0--------6-6-5--8-x1---|
D|----------4-x1----------------| 
A|------------------------------| 
E|------------------------------|

Oh baby, help me from frozen pain
with your smile, your eyes,
and sing me, just for me


G|--------------------777777777-666-1010101010--------|
D|----------66-77-66----------------------------------| 
A|----------------------------------------------------| 
E|----------------------------------------------------|

comments
We did not receive enough feedback on this tab! Please rate:
print report bad tab
1 2 3 4 5
1 comment total.
0 reply
SirJoesephXD wrote on February 2 2009, 02:27 pm

Everytime i read this tab, its just wrong... x_x

Why dont you fix it or something... im too lazy to tab it...

I want to post or [tab]
guest
You may want to rate the tab now too:
select rating
Please do not post tabs as comments. Select "correction" instead!