Oops, an error
Loading. Please wait.

Zero Bass Tab

version 1
version 1

Whole song

Interactive

5,310 views 1 this week
no commentswrite comment
1 2 3 4 5
please rate
add to favorites
launch autoscroll
font size
0
reset
guitar tuner
Autoscroll
slow
fast
+/-
esc
set tempo
stop
Help us to improve Ultimate-Guitar.com Take our survey!
×
Contributor
Bex_G2 88
guitarra intro....

G|-----------------------------------------------|
D|--44---------------------44------22------------|  x 2
A|------22--44--\6-66----------22------\4-44-----| 
E|-----------------------------------------------|



My reality is something weird
My unfriendly smile on my way
Nothing new this wearisome day

This world is full of narcissist
The girls dressed are just a put-on
Oops! i'm all thumbs, i'm not like you

G|-----------------------------------------------|
D|--44---------------------44------22------------|
A|------22--44--\6-66----------22------\4-44-----| 
E|-----------------------------------------------|




Everybody's raping me. everybody's lying to me

G|--2-22--22222---5-55--55555--------------3-33--2-22------|
D|-----------------------------4-44--2-22------------------|
A|---------------------------------------------------------|
E|---------------------------------------------------------|

Everybody's looking at me. everybody's laughing at me
So what! don't care what people say.

G|-2-22--22222---5-55-55555--44---------4-44--4----4---4------|
A|----------------------------------------------5---5---5-----|esto se ac cada vez mas rapido
D|------------------------------------------------6--6---6----| 
E|-------------------------------88--6------------------------|
			pull up segundo "8"


I'm going my way. i believe in my way
I'm better than you guys
I'm living for my sake, not for their sake, yeah!

G|---------------------------------------------------------------------------|
A|-----4-(x6)--------2-(x6)-------------------2-(x6)-------------------------|
D|------------2-(x6)--------4-(x6)---0-(x6)-----------4-(x6)-------------2---|
E|------------------------------------------------------------55-44-3-22-----|
I'm finding my way. i'm finding my love
I'm not stupid like you
All that i need is, i only need is selfless love

G|---------------------------------------------------------------------------|
A|-----4-(x6)--------2-(x6)-------------------2-(x6)-------------------------|
D|------------2-(x6)--------4-(x6)---0-(x6)-----------4-(x6)-----------2-0-2-|
E|------------------------------------------------------------5-4-3-2--------|

All i don't need is, i only need is selfless love
G|-----------------------------------------------|
D|--44---------------------44------22------------|  x2
A|------22--44--\6-66----------22------\4-44-----| 
E|-----------------------------------------------|

They think i'm a lucky girl
But i'm just doing what i want
Hey everybody, they're jealousy about me
You guys are wrong, be truth to yourself
Throw your guns & weapons right now
Let's enjoy your beautiful life with me
G|-----------------------------------------------|
D|--44---------------------44------22------------|  
A|------22--44--\6-66----------22------\4-44-----| 
E|-----------------------------------------------|

Everybody hates me. everybody's waiting for me
G|--2-22--22222---5-55--55555--------------3-33--2-22------|
D|-----------------------------4-44--2-22------------------|
A|---------------------------------------------------------|
E|---------------------------------------------------------|

Everybody's hurting at me. everybody's hunting for me
So what! please leave me alone!
G|-2-22--22222---5-55-55555--44---------4-44--4----4---4------|
A|----------------------------------------------5---5---5-----|esto se ac cada vez mas rapido
D|------------------------------------------------6--6---6----| 
E|-------------------------------88--6------------------------|
			pull up segundo "8"

I'm going my way. i believe in my way
I'm better than you guys.
I'm living for my sake, not for their sake, yeah!
G|---------------------------------------------------------------------------|
A|-----4-(x6)--------2-(x6)-------------------2-(x6)-------------------------|
D|------------2-(x6)--------4-(x6)---0-(x6)-----------4-(x6)-------------2---|
E|------------------------------------------------------------55-44-3-22-----|

I'm finding my way, i'm finding my love
I'm not cheap like you guys
All that i need is, i only need is selfless love
All i don't need is, i only need is selfless love
G|---------------------------------------------------------------------------|
A|-----4-(x6)--------2-(x6)-------------------2-(x6)-------------------------|
D|------------2-(x6)--------4-(x6)---0-(x6)-----------4-(x6)-----------2-0-2-|
E|------------------------------------------------------------5-4-3-2--------|

solo...
	G|-----------------------------------------------|
	D|--44---------------------44------22------------| 
	A|------22--44--\6-66----------22------\4-44-----| 
	E|-----------------------------------------------|


I'm going my way. i believe in my way
I'm better than you guys.
I'm living for my sake, not for their sake, yeah!
G|---------------------------------------------------------------------------|
A|-----4-(x6)--------2-(x6)-------------------2-(x6)-------------------------|
D|------------2-(x6)--------4-(x6)---0-(x6)-----------4-(x6)-------------2---|
E|------------------------------------------------------------55-44-3-22-----|

I'm finding my way, i'm finding my love
I'm not cheap like you guys
All that i need is, i only need is selfless love
All i don't need is, i only need is selfless love
G|---------------------------------------------------------------------------|
A|-----4-(x6)--------2-(x6)-------------------2-(x6)-------------------------|
D|------------2-(x6)--------4-(x6)---0-(x6)-----------4-(x6)-----------2-0-2-|
E|------------------------------------------------------------5-4-3-2--------|




Suggest correction What's this?
You can suggest a correction to this tab. Community and Mods will review your correction and vote to approve or reject it.
comments
We did not receive enough feedback on this tab! Please rate:
print report bad tab
1 2 3 4 5
I want to post or [tab]
guest
You may want to rate the tab now too:
select rating
Please do not post tabs as comments. Select "correction" instead!