Oops, an error
Loading. Please wait.

I Wish You Well Tab

286 views 1 this week
no commentswrite comment
1 2 3 4 5
please rate
add to favorites
launch autoscroll
font size
0
reset
how to read this tab
guitar tuner
Autoscroll
slow
fast
+/-
esc
set tempo
stop
Help us to improve Ultimate-Guitar.com Take our survey!
×
Artist: Anna Waronker
Song: I Wish You Well
Album: Anna by Anna Waronker

Intro/fill/outro (Used after first verse and choruses and as outro):
   D   G F     D   G F    D  G  F  D
E-----------------------------------
B-----------------------------------
G--77--1210---7-7--1210--7-7-1210--7
D--77--1210---7-7--1210--7-7-1210--7
A--55--10-8---5-5--10-8--5-5-10-8--5
E-----------------------------------

Verse:
   D   DCD   G                A
E------------------------------------
B------------------------------------
G--77--757---------------------------
D--77--757---5-5-555-5-5-555-7-7-777-
A--55--535---5-5-555-5-5-555-7-7-777-
E------------3-3-333-3-3-333-5-5-555-

Chorus:
   G        A      G       Em      G        A
E-------------------------------------------------
B-------------------------------------------------
G-------------------------------------------------
D-555555557777777755555555222222225555555577777777
A-555555557777777755555555222222225555555577777777
E-333333335555555533333333000000003333333355555555

Post Chorus/ Bridge part 1 ( If there was a better time...):
  G    A     D    G      G    A      D     G
E---------------------------------------------
B---------------------------------------------
G------------7-----------------------7--------
D-5----7-----7----5------5----7------7-----5--
A-5----7-----5----5------5----7------5-----5--
E-3----5----------3------3----5------------3--

Faster part ( Dont take me on a ride....):
  G        A        C       A
E------------------------------------
B------------------------------------
G------------------55555555----------
D-5555555577777777-55555555-77777777-
A-5555555577777777-33333333-77777777-
E-3333333355555555----------55555555-
Suggest correction
Give kudos to tab author, rate the tab!
1 2 3 4 5
comments
print report bad tab
guest
You may want to rate the tab now too:
select rating
Wanna post a correction for this tab? Suggest correction