Oops, an error
Loading. Please wait.

Put Your Hand In The Hand bass

208 views 3 this week
no commentswrite comment
1 2 3 4 5
3 more votes to show rating
add to favorites
×
Save as Personal and add changes to this tab that will be seen only by you. Learn more ›
×
You can save this tab as Personal to edit and correct it or add notes. All changes will be seen only by you. Learn more »
launch autoscroll
font size
0
reset
guitar tuner
edit
Autoscroll
slow
fast
+/-
esc
set tempo
stop
Author
---------------------------------------------------------------------
                 Put Your Hand in the Hand - Anne Murray
---------------------------------------------------------------------
Tabbed by: RagnaarMN
Tuning: Standard
Key of G Major, 1 sharp
                                                             Put your
G|----------------|----------------|----------------|----------------|
D|0---------------|----------------|--------3-------|--------0-------|
A|----------------|0---------------|----0-----2-----|----------------|
E|--------0-------|--------0-------|3---------------|3-----------0---|

  hand                              water                        Put
G|----------------|----------------|----------------|----------------|
D|--------0-------|--------0-------|--------0-------|--------0-------|
A|----------------|----------------|0---------------|0---------------|
E|3---------------|3---------------|----------------|----------------|

  hand                              sea
G|----------------|----------------|----------------|----------------|
D|----------------|0-------0-------|--------3-------|0---0---0-------|
A|0---------------|----------------|----0-----2-----|----------------|
E|--------0-------|----------------|3---------------|----------------|

G|----------------|----------------|----------------|----------------|
D|0-------0-------|----------------|----------------|----------------|
A|----------------|----------------|3-------3-------|4---4-------4---|
E|----------------|3-------3-------|----------------|----------------|

  hand             man     Galilee
G|----------------|----------------|----------------|----------------|
D|0---------------|--------0-------|--------3-------|----0-----------|
A|----------------|0---------------|----0-----2-----|----------------|
E|--------0-------|----------------|3---------------|3-------3-------|

  time             holy        wan  tremble                      When
G|----------------|----------------|----------------|----------------|
D|--------0-------|--------0-------|--------0-------|--------0-------|
A|----------------|----------------|0---------------|0---------------|
E|3---------------|3---------------|----------------|----------------|

  read    part     carpenter        temple                       For
G|----------------|----------------|----------------|----------------|
D|----------------|0-------0-------|--------3-------|0---0---0-------|
A|0---------------|----------------|----0-----2-----|----------------|
E|--------0-------|----------------|3---------------|----------------|

  buy and     were         fel than I           to               And
G|----------------|----------------|----------------|----------------|
D|0-------0-------|----------------|----------------|----------------|
A|----------------|----------------|3-------3-------|4-------4-------|
E|----------------|3-------3-------|----------------|----------------|

  causes      know not guy          be                       Put your
G|----------------|----------------|----------------|----------------|
D|0---------------|--------0-------|--------3-------|--------0-------|
A|----------------|0---------------|----0-----2-----|----------------|
E|--------0-------|----------------|3---------------|------------0---|

  hand                              water                        Put
G|----------------|----------------|----------------|----------------|
D|--------0-------|--------0-------|--------0-------|--------0-------|
A|----------------|----------------|0---------------|0---------------|
E|3---------------|3---------------|----------------|----------------|

  hand                              sea
G|----------------|----------------|----------------|----------------|
D|----------------|0-------0-------|--------3-------|0---0---0-------|
A|0---------------|----------------|----0-----2-----|----------------|
E|--------0-------|----------------|3---------------|----------------|

G|----------------|----------------|----------------|----------------|
D|0-------0-------|----------------|----------------|----------------|
A|----------------|----------------|3-------3-------|4---4-------4---|
E|----------------|3-------3-------|----------------|----------------|

  hand             man     Galilee
G|----------------|----------------|----------------|----------------|
D|0---------------|--------0-------|--------3-------|----0-----------|
A|----------------|0---------------|----0-----2-----|----------------|
E|--------0-------|----------------|3---------------|3-------3-------|

G|----------------|----------------|----------------|----------------|
D|--------0-------|--------0-------|--------0-------|--------0-------|
A|----------------|----------------|0---------------|0---------------|
E|3---------------|3---------------|----------------|----------------|

  down    knees    when             heaven                       Dad
G|----------------|----------------|----------------|----------------|
D|----------------|0-------0-------|--------3-------|0---0---0-------|
A|0---------------|----------------|----0-----2-----|----------------|
E|--------0-------|----------------|3---------------|----------------|

G|----------------|----------------|----------------|----------------|
D|0-------0-------|----------------|----------------|----------------|
A|----------------|----------------|3-------3-------|4-------4-------|
E|----------------|3-------3-------|----------------|----------------|

  show        what                  through                  Put your
G|----------------|----------------|----------------|----------------|
D|0---------------|--------0-------|--------3-------|--------0-------|
A|----------------|0---------------|----0-----2-----|----------------|
E|--------0-------|----------------|3---------------|------------0---|

**Chorus**                          water                        Put
G|----------------|----------------|----------------|----------------|
D|--------0-------|--------0-------|--------0-------|--------0-------|
A|----------------|----------------|0---------------|0---------------|
E|3---------------|3---------------|----------------|----------------|

  hand                              sea
G|----------------|----------------|----------------|----------------|
D|----------------|0-------0-------|--------3-------|0---0---0-------|
A|0---------------|----------------|----0-----2-----|----------------|
E|--------0-------|----------------|3---------------|----------------|

G|----------------|----------------|----------------|----------------|
D|0-------0-------|----------------|----------------|----------------|
A|----------------|----------------|3-------3-------|4---4-------4---|
E|----------------|3-------3-------|----------------|----------------|

  hand             man     Galilee
G|----------------|----------------|----------------|----------------|
D|0---------------|--------0-------|--------3-------|----0-----------|
A|----------------|0---------------|----0-----2-----|----------------|
E|--------0-------|----------------|3---------------|3-------3-------|

Original version go to Chorus. Live version, with a choir, go to below.

  hand    hand     man     Galilee
G|----------------|----------------|----------------|----------------|
D|0---------------|--------0-------|----------------|0---0-----------|
A|----------------|0---------------|----------------|----------------|
E|--------0-------|----------------|3---------------|--------3-------|


======================================================================

            
            
Suggest correction
Creating personal tab
Creating personal tab
You can edit any tab online and save it as your Personal.

You can edit, replace or remove any tab part or add personal notes – all changes will be seen only by you.

Personal tabs can be accessed anytime from any device, even offline.
Learn more »
Give kudos to tab author, rate the tab!
1 2 3 4 5
comments
print report bad tab
guest
You may want to rate the tab now too:
select rating
Wanna post a correction for this tab? Suggest correction