Oops, an error
Loading. Please wait.

Es Geht Mir Gut bass

403 views 9 this week
no commentswrite comment
1 2 3 4 5
3 more votes to show rating
add to favorites
×
Save as Personal and add changes to this tab that will be seen only by you. Learn more ›
×
You can save this tab as Personal to edit and correct it or add notes. All changes will be seen only by you. Learn more »
launch autoscroll
font size
0
reset
guitar tuner
edit
Autoscroll
slow
fast
+/-
esc
set tempo
stop
Author
Difficulty
About this tab version
Based on the album version. Was this info helpful? Yes No
Tuning: Standard

[Intro]
   1   +   2   +   3   +   4   +
G|---------------------------------|
D|---------------------------------|
A|----------------/5---3-----------|
E|-------------------------6---5---|


[Verse]

G|---------------------------------|---------------------------------||
D|---------------------------------|---------------------------------||
A|---------5---------------5-----3-|-5---------------5-----5---------||
E|-3---------------3---------------|---------5---------------6---3---||
                                                                      |3x
G|---------------------------------|---------------------------------||
D|---------------------------------|---------------------------------||
A|---------3---------------3-------|---------5-----3h5---3-----------||
E|-1---------------1-------------1-|-3-----------------------6---5---||

G|---------------------------------|---------------------------------|
D|---------------------------------|---------------------------------|
A|---------5---------------5-----3-|-5---------------5-----5---------|
E|-3---------------3---------------|---------5---------------6---3---|

G|---------------------------------|---------------------------------|
D|---------------------------------|---------------------------------|
A|---------3---------------3-------|---------5-------5---3-----------|
E|-1---------------1-------------1-|-3-----------------------6---5---|


[Chorus]

G|---------------------------------|---------------------------------|
D|---------------------------------|---------------------------------|
A|-----5-------5-------5-------5---|-----8-------8-------8-------8---|
E|-3-------3-------3-------3-------|-6-------6-------6-------6-------|

G|---------------------------------|---------------------------------|
D|---------------------------------|---------------------------------|
A|-----12------12------12------12--|-----12------12------12------12--|
E|-10------10------10------10------|-10------10------10------10------|

G|---------------------------------|---------------------------------|
D|---------------------------------|---------------------------------|
A|-----5-------5-------5-------5---|-----8-------8-------8-------8---|
E|-3-------3-------3-------3-------|-6-------6-------6-------6-------|

G|---------------------------------|---------------------------------|
D|---------------------------------|---------------------------------|
A|-----12------12------12------12--|-----12------10------8-------7---|
E|-10------10------10------10------|-10------8-------6-------5-------|

G|---------------------------------|
D|---------------------------------|
A|-----5---------3h5---3-----------|
E|-3-------3---------------6---5---|


[Verse]

G|---------------------------------|---------------------------------|
D|---------------------------------|---------------------------------|
A|---------5---------------5-----3-|-5---------------5-----5---------|
E|-3---------------3---------------|---------5---------------6---3---|

G|---------------------------------|---------------------------------|
D|---------------------------------|---------------------------------|
A|---------3---------------3-------|---------5-----3h5---3-----------|
E|-1---------------1-------------1-|-3-----------------------6---5---|

G|---------------------------------|---------------------------------|
D|---------------------------------|---------------------------------|
A|---------5---------------5-----3-|-5---------------5-----5---------|
E|-3---------------3---------------|---------5---------------6---3---|

G|---------------------------------|---------------------------------|
D|---------------------------------|---------------------------------|
A|---------3---------------3-------|-----------------------------5---|
E|-1---------------1-------------1-|-3-------------------------------|

G|---------------------------------|---------------------------------|
D|---------------------------------|---------------------------------|
A|---------5---------------5-----3-|-5---------------5-----5---------|
E|-3---------------3---------------|---------5---------------6---3---|

G|---------------------------------|---------------------------------|
D|---------------------------------|---------------------------------|
A|---------3---------------3-------|---------5-----3h5---3-----------|
E|-1---------------1-------------1-|-3-----------------------6---5---|

G|---------------------------------|---------------------------------|
D|---------------------------------|---------------------------------|
A|---------5---------------5-----3-|-5---------------5-----5---------|
E|-3---------------3---------------|---------5---------------6---3---|

G|---------------------------------|---------------------------------|
D|---------------------------------|---------------------------------|
A|---------------------------------|---------5-------5---3-----------|
E|-1~~~~-------------------------1-|-3~~~~-------------------6---5---|


[Chorus]

G|---------------------------------|---------------------------------|
D|---------------------------------|---------------------------------|
A|-----5-------5-------5-------5---|-----8-------8-------8-------8---|
E|-3-------3-------3-------3-------|-6-------6-------6-------6-------|

G|---------------------------------|---------------------------------|
D|---------------------------------|---------------------------------|
A|-----12------12------12------12--|-----12------12------12------12--|
E|-10------10------10------10------|-10------10------10------10------|

G|---------------------------------|---------------------------------|
D|---------------------------------|---------------------------------|
A|-----5-------5-------5-------5---|-----8-------8-------8-------8---|
E|-3-------3-------3-------3-------|-6-------6-------6-------6-------|

G|---------------------------------|---------------------------------|
D|---------------------------------|---------------------------------|
A|-----12------12------12------12--|-----12------10------8-------7---|
E|-10------10------10------10------|-10------8-------6-------5-------|


[Solo]

G|---------------------------------|---------------------------------|
D|---------------------------------|---------------------------------|
A|-------------5-------5-------5---|-----8-------8-------8-------8---|
E|---------3-------3-------3-------|-6-------6-------6-------6-------|

G|---------------------------------|---------------------------------|
D|-----10------10------10------10--|-----12------12------12------12--|
A|-8-------8-------8-------8-------|-10------10------10------10------|
E|---------------------------------|---------------------------------|

G|---------------------------------|---------------------------------|
D|---------------------------------|---------------------------------|
A|-----5-------5-------5-------5---|-----8-------8-------8-------8---|
E|-3-------3-------3-------3-------|-6-------6-------6-------6-------|

G|---------------------------------|---------------------------------|
D|-----10------10------10------10--|-----12------12------12------12--|
A|-8-------8-------8-------8-------|-10------10------10------10------|
E|---------------------------------|---------------------------------|

G|---------------------------------|---------------------------------||
D|-----12------12------12------12--|-----10------10------10------10--||
A|-10------10------10------10------|-8-------8-------8-------8-------||
E|---------------------------------|---------------------------------||
                                                                      |2x
G|---------------------------------|---------------------------------||
D|-----10------10------10------10--|-----12------12------12------12--||
A|-8-------8-------8-------8-------|-10------10------10------10------||
E|---------------------------------|---------------------------------||


[Chorus]

G|---------------------------------|---------------------------------|
D|---------------------------------|---------------------------------|
A|-----5-------5-------5-------5---|-----8-------8-------8-------8---|
E|-3-------3-------3-------3-------|-6-------6-------6-------6-------|

G|---------------------------------|---------------------------------|
D|---------------------------------|---------------------------------|
A|-----12------12------12------12--|-----12------12------12------12--|
E|-10------10------10------10------|-10------10------10------10------|

G|---------------------------------|---------------------------------|
D|---------------------------------|---------------------------------|
A|-----5-------5-------5-------5---|-----8-------8-------8-------8---|
E|-3-------3-------3-------3-------|-6-------6-------6-------6-------|

G|---------------------------------|---------------------------------|
D|---------------------------------|---------------------------------|
A|-----12------12------12------12--|-----12------12------------------|
E|-10------10------10------10------|-10------10------10~~~\----------|


************************************

| h   Hammer-on
| /   Slide up
| \   Slide down
| ~   hold

************************************
Suggest correction
Creating personal tab
Creating personal tab
You can edit any tab online and save it as your Personal.

You can edit, replace or remove any tab part or add personal notes – all changes will be seen only by you.

Personal tabs can be accessed anytime from any device, even offline.
Learn more »
Give kudos to tab author, rate the tab!
1 2 3 4 5
comments
print report bad tab
guest
You may want to rate the tab now too:
select rating
Wanna post a correction for this tab? Suggest correction