Oops, an error
Loading. Please wait.

Pocahontas Tab

version 1
version 1

Intro

  • Based on the album version.

Interactive

1,567 views 69 this week
no commentswrite comment
1 2 3 4 5
x 6
add to favorites
launch autoscroll
font size
0
reset
how to read this tab
guitar tuner
×
Best way to learn
"Pocahontas"
Autoscroll
slow
fast
+/-
esc
set tempo
stop
Author
Difficulty
novice
About this tab version
Based on the album version. Was this info helpful? Yes No
Tuning: Standard

[Intro]
   C
e|-----------------------------|---------------------------------|
B|---------1-------------1-----|-------1-------1-------1-------1-|
G|-----0-------------0---------|-----0-------0-------0-------0---|
D|-----------2-------------2---|-0h2-----0h2-----0h2-----0h2-----|
A|-3-------------3-------------|---------------------------------|
E|-----------------------------|---------------------------------|

   Am
e|-----------------------------|---------------------------------|
B|---------1-------------1-----|-------1-------1-------1-------1-|
G|-----2-------------2---------|-----2-------2-------2-------2---|
D|-----------2-------------2---|-0h2-----0h2-----0h2-----0h2-----|
A|-0-------------0-------------|---------------------------------|
E|-----------------------------|---------------------------------|

************************************

| h   hammer-on

************************************
Suggest correction
comments
print report bad tab
guest
You may want to rate the tab now too:
select rating
Wanna post a correction for this tab? Suggest correction