Oops, an error
Loading. Please wait.

Shiny Days Tab

2,386 views 12 this week
1 commentread comment
1 2 3 4 5
1 last vote to show rating
add to favorites
launch autoscroll
font size
0
reset
how to read this tab
guitar tuner
Autoscroll
slow
fast
+/-
esc
set tempo
stop
Help us to improve Ultimate-Guitar.com Take our survey!
×
Difficulty
Capo
novice
2nd fret
CAPO 2nd FRET (Cejilla en el 2º traste)

Intro+Verse

|-----3---3---3----|------3---3---3-----|
|----1--1---1---1--|-----1--1---1---1---|
|---2----2---2---2-|----2----2---2---2--|
|--3---------------|--------------------|
|------------------|--0-----------------|
|------------------|--------------------|

|-----3---3---3----|------3---3---3-----|
|----1--1---1---1--|-----1--1---1---1---|
|---0----0---0---0-|----0----0---0---0--|
|------------------|--------------------|
|--3---------------|--3-----------------|
|------------------|--------------------|

Chorus

|----------------|----------------|
|-----1-----1----|-----0-----0----|
|----0-0---0-0---|----1-1---1-1---|
|---2---2-2---2--|---2---2-2---2--|
|--3-----3-------|--2-----2-------|
|----------------|----------------|


|----------------|----------------|
|-----1-----1----|-----1-----1----|
|----2-2---2-2---|----2-2---2-2---|
|---2---2-2---2--|---3---3-3---3--|
|--0-----0-------|--3-----3-------|
|----------------|----------------|

|----------------|----------------|
|-----1-----1----|-----0-----0----|
|----0-0---0-0---|----1-1---1-1---|
|---2---2-2---2--|---2---2-2---2--|
|--3-----3-------|--2-----2-------|
|----------------|----------------|


|----------------|----------------|
|-----1-----1----|-----1-----2----|
|----2-2---2-2---|----2-2---0-0---|
|---2---2-2---2--|---3---3-0---0--|
|--0-----0-------|--3-------------|
|----------------|--------3-------|

|----------------|----------------|
|-----1-----1----|-----0-----0----|
|----0-0---0-0---|----1-1---1-1---|
|---2---2-2---2--|---2---2-2---2--|
|--3-----3-------|--2-----2-------|
|----------------|----------------|


|----------------|----------------|
|-----1-----1----|-----1-----1----|
|----2-2---2-2---|----2-2---2-2---|
|---2---2-2---2--|---3---3-3---3--|
|--0-----0-------|--3-----3-------|
|----------------|----------------|

That's it!

Lyrics:

But it's only when you leave 
that I'm staying up alone 
and you just walked out the door 
even if I start to moan 
I said baby baby please 
don't you leave me sitting here 
got a lot of imagination for all horrible things 
But you're ready in the car 
and you're driving your way home,
well, I'm leaving you a message 
on the telephone saying: 

Oh, baby 
bring me my shiny days 
bring me my shiny days back 
and he said; 
Oh, darling, 
bring me my shiny days 
and take away the rainy days 


and it's been three days past 
but you still have not been back 
you've got a lot of work to do 
you're a busy busy man 
but i'm still waiting for you 
with the same love as before 
yes, i'm still waiting for you 
to give me more and more 

Oh, baby, bring me my shiny days
bring me my shiny days back
and he said; Oh, darling, bring me my shiny days 
and take away the rainy days


Enjoy!

cacafuti.
Suggest correction
Give kudos to tab author, rate the tab!
1 2 3 4 5
comments
print report bad tab
1 comment total.
0 reply
madscs 120 Jul 28, 2013 05:59 PM

|-----3---3---3----|------3---3---3-----|
|----1--1---1---1--|-----1--1---1---1---|
|---0----0---0---0-|----0----0---0---0--|
|------------------|--------------------|
|--3---------------|--------------------|
|------------------|--3-----------------|

Cacafuti, you have a minor displacement of the last bass note in the verse, ehehe. G, not a C.

And here;

|----------------|----------------|
|-----1-----1----|-----1-----2----|
|----2-2---2-2---|----2-2---0-0---|
|---2---2-2---2--|---3---3-0---0--|
|--0-----0-------|--3-------------|
|----------------|--------3-------|

Sounds more like:

|----------------|-----1-----3----|
|-----1-----1----|-----1-----3----|
|----2-2---2-2---|----2-2---4-4---|
|---2---2-2---2--|---3---3-5---5--|
|--0-----0-------|----------------|
|----------------|--1-----3-------|

At least according to the recording you sent me, pene <3

But nice work! :)

guest
You may want to rate the tab now too:
select rating
Wanna post a correction for this tab? Suggest correction