Oops, an error
Loading. Please wait.

Brain Dance tab

version 1
version 1

Whole song

Interactive

5,395 views 12 this week
1 commentread comment
1 2 3 4 5
x 3
add to favorites
×
Save as Personal and add changes to this tab that will be seen only by you. Learn more ›
×
You can save this tab as Personal to edit and correct it or add notes. All changes will be seen only by you. Learn more »
launch autoscroll
font size
0
reset
how to read this tab
guitar tuner
backing track
0:00
0:00
edit
Autoscroll
slow
fast
+/-
esc
set tempo
stop
Author
Difficulty
Annihilator - Braindance

tabbed by
ol753_357lo@yahoo.co.uk

Tuning - E A D G B E


Gtr 1
play 3 times
  PM-----------------|       PM---------------------------------------------|
|---------------------------------------------------------------------------|
|---------------------------------------------------------------------------|
|-------------------------------------------------16-15----14----[13]\------|
|----------------------------------------14-16-17-------16----15------------|
|----------------------8--8-------------------------------------------------|
|-0--0-0-0-0-0-0-0-0-0-6--6--0-0-0-0-0-0------------------------------------|


4th time
  PM-----------------|       PM----------------------------------------------|
|----------------------------------------------------------------------------|
|----------------------------------------------------------------------------|
|-------------------------------------------------16-15----14----13--12------|
|----------------------------------------14-16-17-------16----15-------------|
|----------------------8--8--------------------------------------------------|
|-0--0-0-0-0-0-0-0-0-0-6--6--0-0-0-0-0-0-------------------------------------|


Gtr 2
play 3 times
  PM-----------------|       PM---------------------------------------------|
|---------------------------------------------------------------------------|
|---------------------------------------------------------------------------|
|-------------------------------------------------19-18----17----[16]\------|
|----------------------------------------17-19-20-------19----18------------|
|----------------------8--8-------------------------------------------------|
|-0--0-0-0-0-0-0-0-0-0-6--6--0-0-0-0-0-0------------------------------------|


4th time
  PM-----------------|       PM----------------------------------------------|
|----------------------------------------------------------------------------|
|----------------------------------------------------------------------------|
|-------------------------------------------------19-18----17----16--15------|
|----------------------------------------17-19-20-------19----18-------------|
|----------------------8--8--------------------------------------------------|
|-0--0-0-0-0-0-0-0-0-0-6--6--0-0-0-0-0-0-------------------------------------|


Gtr 1
play twice
   PM--------------------------------------------------------------------|
|------------------------------------------------------------------------|
|------------------------------------------------------------------------|
|-------13-12------------11-10-------------------------------------------|
|----12-------11------10-------9--------9---8---7---6------4---3---------|
|-11-------------10-9------------8----8---7---6---5------3---2----4------|
|-----------------------------------------------------------------2------|


Gtr 2
play twice
   PM----------------------------------------------------------------------------|
|--------------------------------------------------------------------------------|
|--------------------------------------------------------------------------------|
|-------16-15-------------14-13--------------------------------------------------|
|----15-------14-------13-------12----------12----11---10---9------7---6---------|
|-14-------------13-12-------------11----11----10----9----8------6---5----4------|
|-------------------------------------------------------------------------2------|


Verse
Both Gtrs
    PM             PM             PM
|---------------------------------------------------------------|
|---------------------------------------------------------------|
|-------5--3-----------5--3-----------5--3----------------------|
|-------5--3-----3-----5--3-3-3-5-----5--3h5p3---8--8-----------|
|-5----------5-5-1-1-1------1-1-3-3-3----------5-6--6--3--3-4---|
|-3-3-3------3-3---------------------------------------1--1-2---|


    PM             PM             PM
|---------------------------------------------------------------|
|---------------------------------------------------------------|
|-------5--3-----------5--3-----------5--3----------------------|
|-------5--3-----3-----5--3-3-3-5-----5--3h5p3---8--8--10-------|
|-5----------5-5-1-1-1------1-1-3-3-3----------5-6--6--8--3-4---|
|-3-3-3------3-3------------------------------------------1-2---|


    PM|   PM    PM  PM|   PM        PM|   PM
|------------------------------------------------------------------|
|------------------------------------------------------------------|
|-------5---3-----------5---3-----------5---3----------------------|
|-------5---3-----3-----5---3-3-3-5-----5---3h5p3---8--8-----------|
|-5-----------5-5-1-1-1---1---1-1-3-5-5---3-------5-6--6--3--3-4---|
|-3-3-3---3---3-3-----------------------------------------1--1-2---|


    PM|   PM    PM  PM|   PM        PM|   PM
|------------------------------------------------------------------|
|------------------------------------------------------------------|
|-------5---3-----------5---3-----------5---3----------------------|
|-------5---3-----3-----5---3-3-3-5-----5---3h5p3---8--8--10-------|
|-5-----------5-5-1-1-1---1---1-1-3-5-5---3-------5-6--6--8--3-4-5-|
|-3-3-3---3---3-3--------------------------------------------1-2-3-|


Chorus
Both Gtrs
play 3 times
  PM-----------------------|     PM---------------------------|
|-------------------------------------------------------------|
|-------------------------------------------------------------|
|-------------------------------------------------------------|
|-------------------------------------------------------------|
|----------------------------7S8--------------0-5-5--3-3------|
|-0--6-5-3-0-5-6-8-0-9-8-6-0-5S6-0--6-5-3-0-3---3-3--1-1------|


4th time
  PM------------------------------------------------------------------|
|---------------------------------------------------------------------|
|---------------------------------------------------------------------|
|--------------------------------------------------10-----10----------|
|----------------------------------------------8-9----8-9----8-9------|
|--------------------------------10-----10----------------------------|
|-0--6-5-3-0-5-6-8-0-9-8-----8-9----8-9----8-9------------------------|


Both Gtrs
play twice
  PM---------------------------------------------------------------|
|------------------------------------------------------------------|
|------------------------------------------------------------------|
|------------------------------------------------------------------|
|-----------------------------------------------5-5-5-5---5--------|
|-----------------------------------------------3-3-3-3---3-3------|
|-0--0-0-0-0-0-0-0-0-0-0--0-0-0-0--0-0-0-0-0-0--------------1------|


Gtr 3
      PM----|         PM|            PM----------------------------------|
|------------------------------------------------------------------------|
|-----------------8p7----------------------------10-10-10-8-8-8-7-7------|
|-7h9-9-9-9-9-7h9-----9-7-[9]----7h9-9-9-9-9-7h9-------------------------|
|------------------------------------------------------------------------|
|------------------------------------------------------------------------|
|------------------------------------------------------------------------|


      PM----|         PM|            PM----------------------------------|
|-----------------------------------------------12-----14-----15---------|
|-----------------8p7---------------------------15b17--17b19--18b20------|
|-7h9-9-9-9-9-7h9-----9-7-[9]----7h9-9-9-9-9-7---------------------------|
|------------------------------------------------------------------------|
|------------------------------------------------------------------------|
|------------------------------------------------------------------------|


Gtr 4
         PM------|               PM------------------------------------------------------------|
|----------------------------------------------------------------------------------------------|
|-------------------------12p10---------------------------------------13-13-13-12-12-12-10-10--|
|-11h12-12-12-12-12-11h12-------12-11-[12]----11h12-12-12-12-12-11h12--------------------------|
|----------------------------------------------------------------------------------------------|
|----------------------------------------------------------------------------------------------|
|----------------------------------------------------------------------------------------------|


         PM------|               PM-----------------------------------|
|---------------------------------------------------------------------|
|-------------------------12p10---------------------------------------|
|-11h12-12-12-12-12-11h12-------12-11-12----11h12-12-12-12-12-11------|
|---------------------------------------------------------------------|
|---------------------------------------------------------------------|
|---------------------------------------------------------------------|


Gtr 1
play twice
   PM--------------------------------------------------------------------|
|------------------------------------------------------------------------|
|------------------------------------------------------------------------|
|-------13-12------------11-10-------------------------------------------|
|----12-------11------10-------9--------9---8---7---6------4---3---------|
|-11-------------10-9------------8----8---7---6---5------3---2----4------|
|-----------------------------------------------------------------2------|


Gtr 2
play twice
   PM----------------------------------------------------------------------------|
|--------------------------------------------------------------------------------|
|--------------------------------------------------------------------------------|
|-------16-15-------------14-13--------------------------------------------------|
|----15-------14-------13-------12----------12----11---10---9------7---6---------|
|-14-------------13-12-------------11----11----10----9----8------6---5----4------|
|-------------------------------------------------------------------------2------|


Repeat Verse


Gtr 3
|----|------------------------------------------------------------------------------------------------------|
|-11-|-------11----10-------11-------11----10-------11-------11----10-------11-------11-13-13b15r=13p11-----|
|----|-12-12----12----10-------12-12----12----10-------12-12----12----10-------12-12--------------------12--|
|----|-------------------12----------------------12----------------------12---------------------------------|
|----|------------------------------------------------------------------------------------------------------|
|----|------------------------------------------------------------------------------------------------------|


|----|---------------------------------------------------------------------------------------------------|
|-11-|-------11----10-------11-------11----10-------11-------11----10-------11-------11----10------------|
|----|-12-12----12----10-------12-12----12----10-------12-12----12----10-------12-12----12----10---------|
|----|-------------------12----------------------12----------------------12------------------------------|
|----|---------------------------------------------------------------------------------------------------|
|----|---------------------------------------------------------------------------------------------------|


Chorus
Both Gtrs
play 3 times
  PM-----------------------|     PM---------------------------|
|-------------------------------------------------------------|
|-------------------------------------------------------------|
|-------------------------------------------------------------|
|-------------------------------------------------------------|
|----------------------------7S8--------------0-5-5--3-3------|
|-0--6-5-3-0-5-6-8-0-9-8-6-0-5S6-0--6-5-3-0-3---3-3--1-1------|


4th Time
  PM-----------------------------------------------------------|
|--------------------------------------------------------------|
|--------------------------------------------------------------|
|--------------------------------------------------------------|
|--------------------------------------------------------------|
|-------------------------------10-----10-----11-11-11-11------|
|-0--6-5-3-0-5-6-8-0-9-8----8-9----8-9----8-8--9--9--9--9------|

Both Gtrs
|------------------------------------------------------|
|------------------------------------------------------|
|-----0-------0---------------------------0-------0----|
|---6---6---6---6-----------------------6---6---6---6--|
|-4-------4-------------2-3-2h3p2-----4-------4--------|
|-----------------2-4-5-----------5-2------------------|


Gtr 1
  PM--------------------|
|-----------------------|
|-----------------------|
|-----------------------|
|-----------------------|
|-------2-3-7-6tr7------|
|-2-4-5-----------------|


Gtr 2
  PM--------------------|
|-----------------------|
|-----------------------|
|-----------------------|
|-----------5-4tr5------|
|-------2-3-------------|
|-2-4-5-----------------|


Both Gtrs
                  PM---------------------------------------|
|----------------------------------------------------------|
|----------------------------------------------------------|
|-----0-------0---------------------------0----------------|
|---6---6---6---6-----------------------6---6---6----------|
|-4-------4-------------2-3-2h3p2-----4-------4------------|
|-----------------2-4-5-----------5-2-------------\--------|


Gtr 1
  PM--------------------|
|-----------------------|
|-----------------------|
|-----------------------|
|-----------------------|
|-------2-3-7-6tr7------|
|-2-4-5-----------------|


Gtr 2
  PM--------------------|
|-----------------------|
|-----------------------|
|-----------------------|
|-----------5-4tr5------|
|-------2-3-------------|
|-2-4-5-----------------|


Both Gtrs
   PM-|       PM--|       PM--|   PM
|------------------------------------------|
|------------------------------------------|
|------------------------------------------|
|-----------------------------------0------|
|-----------6-------5-6-5-------4-----1----|
|-4-4-4-7-4---4-4-4-------0-0-0---0--------|


Gtr 1
   PM-|   PM  PM--|       PM--|   PM|
|---------------------------------------------------|
|-------------------------------------12-11-10-9----|
|---------------------------------------------------|
|---------------------------------------------------|
|-----------6-------5-6-5-------4-------------------|
|-4-4-4-7-4---4-4-4-------0-0-0---0-0---------------|


Gtr 2
  PM--|   PM  PM--|       PM--|   PM-------------------|
|------------------------------------------------------|
|-------------------------------------16-15-14-12------|
|------------------------------------------------------|
|------------------------------------------------------|
|-----------6-------5-6-5-------4----------------------|
|-4-4-4-7-4---4-4-4-------0-0-0---0-0------------------|


Both Gtrs
   PM-|       PM--|       PM--|   PM
|------------------------------------------|
|------------------------------------------|
|------------------------------------------|
|-----------------------------------0------|
|-----------6-------5-6-5-------4-----1----|
|-4-4-4-7-4---4-4-4-------0-0-0---0--------|


Gtr 1
   PM-|   PM  PM--|       PM--|   PM|
|---------------------------------------------------|
|-------------------------------------12-11-10-9----|
|---------------------------------------------------|
|---------------------------------------------------|
|-----------6-------5-6-5-------4-------------------|
|-4-4-4-7-4---4-4-4-------0-0-0---0-0---------------|


Gtr 2
  PM--|   PM  PM--|       PM--|   PM-------------------|
|------------------------------------------------------|
|-------------------------------------16-15-14-12------|
|------------------------------------------------------|
|------------------------------------------------------|
|-----------6-------5-6-5-------4----------------------|
|-4-4-4-7-4---4-4-4-------0-0-0---0-0------------------|


Both Gtrs
play 4 times
  PM---------------------------------------------------------------|
|------------------------------------------------------------------|
|------------------------------------------------------------------|
|------------------------------------------------------------------|
|-----------------------------------------------5-5-5-5---5--------|
|-----------------------------------------------3-3-3-3---3-3------|
|-0--0-0-0-0-0-0-0-0-0-0--0-0-0-0--0-0-0-0-0-0--------------1------|


Gtr 3
play twice
      PM----|         PM|            PM----------------------------------|
|------------------------------------------------------------------------|
|-----------------8p7----------------------------10-10-10-8-8-8-7-7------|
|-7h9-9-9-9-9-7h9-----9-7-[9]----7h9-9-9-9-9-7h9-------------------------|
|------------------------------------------------------------------------|
|------------------------------------------------------------------------|
|------------------------------------------------------------------------|


      PM----|         PM|            PM----------------------------------|
|-----------------------------------------------12-----14-----15---------|
|-----------------8p7---------------------------15b17--17b19--18b20------|
|-7h9-9-9-9-9-7h9-----9-7-[9]----7h9-9-9-9-9-7---------------------------|
|------------------------------------------------------------------------|
|------------------------------------------------------------------------|
|------------------------------------------------------------------------|


Gtr 4
play twice
         PM------|               PM------------------------------------------------------------|
|----------------------------------------------------------------------------------------------|
|-------------------------12p10---------------------------------------13-13-13-12-12-12-10-10--|
|-11h12-12-12-12-12-11h12-------12-11-[12]----11h12-12-12-12-12-11h12--------------------------|
|----------------------------------------------------------------------------------------------|
|----------------------------------------------------------------------------------------------|
|----------------------------------------------------------------------------------------------|


         PM------|               PM-----------------------------------|
|---------------------------------------------------------------------|
|-------------------------12p10---------------------------------------|
|-11h12-12-12-12-12-11h12-------12-11-12----11h12-12-12-12-12-11------|
|---------------------------------------------------------------------|
|---------------------------------------------------------------------|
|---------------------------------------------------------------------|


Both Gtrs, Gtr 3 Lead (to be added)
|----------------------------------|
|----------------------------------|
|----------------------------------|
|-5--5-5-5-5-5-5-7--7-7-7-7-7-7----|
|-3--3-3-3-3-3-3-5--5-5-5-5-5-5----|
|----------------------------------|


  PM---------------------------|                                        PM-------------|
|--------------------------------------------------------------------------------------|
|--------------------------------------------------------------------------------------|
|--------------------------------------------------------------------------------------|
|--------------------------------5--5-5-5-5-5-7--7-7-7-7-7-4--4-4-4-4-4----------------|
|--------------------------------3--3-3-3-3-3-5--5-5-5-5-5-2--2-2-2-2-2-2--3--4--5--6--|
|-0--0-0-0-0-0-0-0-0-0-0-0-0-0-0-------------------------------------------------------|


Both Gtrs
play twice
  PM---------------------------------------------------------------|
|------------------------------------------------------------------|
|------------------------------------------------------------------|
|------------------------------------------------------------------|
|-----------------------------------------------5-5-5-5---5--------|
|-----------------------------------------------3-3-3-3---3-3------|
|-0--0-0-0-0-0-0-0-0-0-0--0-0-0-0--0-0-0-0-0-0--------------1------|


Both Gtrs
play twice
  PM----|
|---------------------------------|
|---------3S5---------------------|
|-----------------1-1-----3-3-----|
|-------------7-0-----2-0-----4-2-|
|-4-3-0---------------------------|
|-------4-------------------------|


         PM|
|---------------|
|---------------|
|---------------|
|---------------|
|-5-4-3---------|
|-3-2-1--1-1----|


Repeat Verse


Gtr 3
|----|---------------------------------------------------------------------------------------------------|
|-11-|-------11----10-------11-------11----10-------11-------11----10-------11-------11----10------------|
|----|-12-12----12----10-------12-12----12----10-------12-12----12----10-------12-12----12----10---------|
|----|-------------------12----------------------12----------------------12------------------------------|
|----|---------------------------------------------------------------------------------------------------|
|----|---------------------------------------------------------------------------------------------------|


Chorus
Both Gtrs
play 3 times
  PM-----------------------|     PM---------------------------|
|-------------------------------------------------------------|
|-------------------------------------------------------------|
|-------------------------------------------------------------|
|-------------------------------------------------------------|
|----------------------------7S8--------------0-5-5--3-3------|
|-0--6-5-3-0-5-6-8-0-9-8-6-0-5S6-0--6-5-3-0-3---3-3--1-1------|


4th Time
  PM-----------------------------------------------------------|
|--------------------------------------------------------------|
|--------------------------------------------------------------|
|--------------------------------------------------------------|
|--------------------------------------------------------------|
|-------------------------------10-----10-----11-11-11-11\-----|
|-0--6-5-3-0-5-6-8-0-9-8----8-9----8-9----8-8--9--9--9--9\-----|


Gtr 3
riff 1
|----------------------------------------------------------------------------|
|----------------------------------------------------------------------------|
|-16----------------16----------------15----------------15-------------------|
|----17-16-14-16-17----17-16-14-16-14----17-16-14-16-17----17-16-14-16-14----|
|----------------------------------------------------------------------------|
|----------------------------------------------------------------------------|

riff 2 (swaps between riff 1 and 2)
|----------------------------------------------------------------------------|
|----------------------------------------------------------------------------|
|----------16----------------16----------------15----------------15----------|
|-14-16-17----17-16-14-16-17----17-16-14-16-17----17-16-14-16-17----17-16----|
|----------------------------------------------------------------------------|
|----------------------------------------------------------------------------|


Both Gtrs
|--------------------------------------------------------|
|--------------------------------------------------------|
|--------------------------------------------------------|
|---------3--3-3-3-3--3-3-3----------3--3-3-3-3--3-3-3---|
|-2-----2-1--1-1-1-1--1-1-1-2------2-1--1-1-1-1--1-1-1---|
|-0-----0-------------------0------0---------------------|


Tablature Legend
----------------
 h   - hammer-on
 p   - pull-off
 b   - bend
 pb  - pre-bend
 r   - bend release (if no number after the r, then release immediately)
 /\  - slide into or out of (from/to "nowhere")
 s   - legato slide
 S   - shift slide
  - natural harmonic
[n]  - artificial harmonic
n(n) - tapped harmonic
 ~   - vibrato
 tr  - trill
 T   - tap
 TP  - trem. picking
 PM  - palm muting
\n/  - tremolo bar dip; n = amount to dip
 \n  - tremolo bar down
 n/  - tremolo bar up
/n\  - tremolo bar inverted dip
 =   - hold bend; also acts as connecting device for hammers/pulls
 <>  - volume swell (louder/softer)
 x   - on rhythm slash represents muted slash
 o   - on rhythm slash represents single note slash

Misc Legend
-----------
 |  - bar
||  - double bar
||o - repeat start
o|| - repeat end
*|  - double bar (ending)
 :  - bar (freetime)
 $  - Segno
 &  - Coda
Tempo markers -  = BPM(8/16=s8/s16), where s8 = swing 8ths, s16 = swing 16ths
Suggest correction
Creating personal tab
Creating personal tab
You can edit any tab online and save it as your Personal.

You can edit, replace or remove any tab part or add personal notes – all changes will be seen only by you.

Personal tabs can be accessed anytime from any device, even offline.
Learn more »
Give kudos to tab author, rate the tab!
1 2 3 4 5
comments
print report bad tab
1 comment total.
0 reply
vexor7 10 Mar 31, 2010 11:08 AM

Damn this is hard
Seems very accurate though
5*

guest
You may want to rate the tab now too:
select rating
Wanna post a correction for this tab? Suggest correction