Oops, an error
Loading. Please wait.

I Am In Command Tab

version 2
version 2

Whole song

Interactive

968 views 1 this week
no commentswrite comment
1 2 3 4 5
3 more votes to show rating
add to favorites
launch autoscroll
font size
0
reset
how to read this tab
guitar tuner
Autoscroll
slow
fast
+/-
esc
set tempo
stop
Help us to improve Ultimate-Guitar.com Take our survey!
×
Author
Difficulty
intermediate
Annihilator - I Am In Command

tabbed by 
ol753_2000@yahoo.co.uk

Tuning - E A D G B E


Gtr 1, Gtr 2 accentuates parts
  PM------------------------------------|
|----------------------------------------------|
|----------------------------------------------|
|----------------------------------------------|
|----------------------------------------------|
|----------------------------------------------|
|-0-0-0-0-0-0-0-0-0-0-0---0-0-0-0-0-0-0-0-0----|


  PM--------------------|      PM|   PM|
|---------------------------------------------|
|---------------------------------------------|
|---------------------------------------------|
|---------------------------------------------|
|----------------------------8-----8-----8----|
|-0-0-0-0-0-0-0-0-0-0-0-0-\--6-0-0-6-0-0-6----|


  PM--------------------|      PM--------------------|
|-----------------------------------------------------------|
|-----------------------------------------------------------|
|-----------------------------------------------------------|
|-----------------------------------------------------------|
|-------------------------10---------------------------8----|
|-0-0-0-0-0-0-0-0-0-0-0-0--8---0-0-0-0-0-0-0-0-0-0-0-0-6----|


  PM--------------------|       PM|   PM
|--------------------------------------------------|
|--------------------------------------------11----|
|-----------------------------------------10-------|
|---------------------------------------8----------|
|-----------------------------8-----8--------------|
|-0-0-0-0-0-0-0-0-0-0-0-0-0---6-0-0-6-0------------|


Both Gtrs
play twice
  PM--------|                    PM|   PM|
|-----------------------------------------------|
|-------------3------3--------------------------|
|-------------2------0--------------------------|
|-------------0------2------4--3-----3-----3/---|
|-------------0------3------2--1-----1-----1/---|
|-0-0-0-2-3-0--------------------0-0---0-0------|


Both Gtrs
play twice
  PM--------|    PM--------|    PM--------|      PM|   PM|
|---------------------------------------------------------------|
|---------------------------------------------------------------|
|---------------------------------------------------------------|
|-------------7\-------------5\-------------4--3-----3-----3/---|
|-------------5\-------------3\-------------2--1-----1-----1/---|
|-0-0-0-2-3-0----0-0-0-2-3-0----0-0-0-2-3-0------0-0---0-0------|


  PM--------|    PM--------|    PM---------|   PM    PM    PM
|-----------------------------------------------------------------|
|-----------------------------------------------------------------|
|-----------------------------------------------------------------|
|-------------7\-------------5\--------------4---3p2---3p2---3/---|
|-------------5\-------------3\--------------2---1p0---1p0---1/---|
|-0-0-0-2-3-0----0-0-0-2-3-0----0-00-0-2-3-0---0-----0-----0------|


Both Gtrs
|------|
|------|
|------|
|------|
|-2----|
|-0----|


Both Gtrs
      PM    PM         PM    PM
|-----------------------------------|
|-----------------------------------|
|-----------------------------------|
|-------------3----------------3----|
|-1p0---1p0---1----1p0---1p0---1----|
|-----0-----0----------0-----0------|


Gtr 1
play 3 times, Gtr 2 accentuates parts
  PM----------------|     PM|
|--------------------------------------|
|--------------------------------------|
|--------------------------------------|
|--------------------------------------|
|---------------------3p2-----3p2p0----|
|-3-0-0-3-0-0-3-0-0-0-----3-0----------|


4th time
  PM----------------|     PM|
|---------------------------------|
|---------------------------------|
|---------------------------------|
|---------------------------------|
|---------------------3p2---------|
|-3-0-0-3-0-0-3-0-0-0-----3-0-\---|


Both Gtrs
    PM    PM     PM  PM    PM     PM  PM    PM     PM  PM   PM
|------------------------------------------------------------------|
|------------------------------------------------------------------|
|------------------------------------------------------------------|
|-7---7S9---9S10---7---7S9---9S10---7---7S9---9S10---7-------------|
|-5---5S7---7S=8---5---5S7---7S=8---5---5S7---7S=8---5---8---------|
|---0-----0------0---0-----0------0---0-----0------0---0-6--0-/----|


  PM    PM     PM  PM    PM     PM  PM    PM     PM  PM   PM
|----------------------------------------------------------------|
|----------------------------------------------------------------|
|----------------------------------------------------------------|
|---7S9---9S10---7---7S9---9S10---7---7S9---9S10---7-------------|
|---5S7---7S=8---5---5S7---7S=8---5---5S7---7S=8---5---8---------|
|-0-----0------0---0-----0------0---0-----0------0---0-6--0-/----|


  PM    PM     PM  PM    PM     PM  PM    PM     PM  PM   PM
|----------------------------------------------------------------|
|----------------------------------------------------------------|
|----------------------------------------------------------------|
|---7S9---9S10---7---7S9---9S10---7---7S9---9S10---7-------------|
|---5S7---7S=8---5---5S7---7S=8---5---5S7---7S=8---5---8---------|
|-0-----0------0---0-----0------0---0-----0------0---0-6--0-/----|


  PM    PM     PM  PM    PM     PM  PM    PM     PM  PM   PM
|----------------------------------------------------------------|
|----------------------------------------------------------------|
|----------------------------------------------------------------|
|---7S9---9S10---7---7S9---9S10---7---7S9---9S10---7-------------|
|---5S7---7S=8---5---5S7---7S=8---5---5S7---7S=8---5---8---------|
|-0-----0------0---0-----0------0---0-----0------0---0-6--0-/----|


Verse
Both Gtrs
play 3 times
  PM  PM|      PM--|   PM|      PM--|   PM|      PM--|    PM
|----------------------------------------------------------------|
|----------------------------------------------------------------|
|----------------------------------------------------------------|
|---9-----9S10-------9-----9S10-------9-----9S10-----------------|
|---7-----7S=8-------7-----7S=8-------7-----7S=8-------8---------|
|-0---0-0------0-0-0---0-0------0-0-0---0-0------0-0-0-6--0-/----|


4th time
  PM  PM|      PM--|   PM|      PM--|   PM|      PM--|    PM
|----------------------------------------------------------------|
|----------------------------------------------------------------|
|----------------------------------------------------------------|
|---9-----9S10-------9-----9S10-------9-----9S10-----------------|
|---7-----7S=8-------7-----7S=8-------7-----7S=8-------8----3----|
|-0---0-0------0-0-0---0-0------0-0-0---0-0------0-0-0-6--0-1----|


Chorus
Both Gtrs
                    PM---------------------------|
|-----------------------------------------------------|
|-----------------------------------------------------|
|-----------------------------------------------------|
|----------------7------------------------------------|
|-5-----5--3--2--5------------------------------------|
|-3-----3--1--0-----0--0-0-0-0-0-0-0-0-0-0-0-0-0-0----|


                    PM----------------------------|
|------------------------------------------------------|
|------------------------------------------------------|
|------------------------------------------------------|
|----------------7-------------------------------------| /3\ triplets
|-5-----5--3--2--5--------------------------/-3-\------|
|-3-----3--1--0-----0-0-0-0-0-0-0-0-0-0-0-0-0-0-0-0----|


                    PM------------|     PM  PM----|
|------------------------------------------------------|
|------------------------------------------------------|
|------------------------------------------------------|
|----------------7-------------------------------------|
|-5-----5--3--2--5----------5-7-7-7-7p5---5------------|
|-3-----3--1--0-----0-0-5-7-------------7---7-6-5-0----|


|--------------------|
|--------------------|
|--------------------|
|---------------7----|
|-5-------3--2--5----|
|-3-------1--0-------|


Gtr 1, Gtr 2 accentuates parts
  PM----------------|     PM|
|--------------------------------------|
|--------------------------------------|
|--------------------------------------|
|--------------------------------------|
|---------------------3p2-----3p2p0----|
|-3-0-0-3-0-0-3-0-0-0-----3-0----------|


  PM----------------|     PM|
|---------------------------------|
|---------------------------------|
|---------------------------------|
|---------------------------------|
|---------------------3p2---------|
|-3-0-0-3-0-0-3-0-0-0-----3-0-\---|


Both Gtrs
    PM    PM     PM  PM    PM     PM  PM    PM     PM  PM   PM
|------------------------------------------------------------------|
|------------------------------------------------------------------|
|------------------------------------------------------------------|
|-7---7S9---9S10---7---7S9---9S10---7---7S9---9S10---7-------------|
|-5---5S7---7S=8---5---5S7---7S=8---5---5S7---7S=8---5---8---------|
|---0-----0------0---0-----0------0---0-----0------0---0-6--0-/----|


  PM    PM     PM  PM    PM     PM  PM    PM     PM  PM   PM
|----------------------------------------------------------------|
|----------------------------------------------------------------|
|----------------------------------------------------------------|
|---7S9---9S10---7---7S9---9S10---7---7S9---9S10---7-------------|
|---5S7---7S=8---5---5S7---7S=8---5---5S7---7S=8---5---8---------|
|-0-----0------0---0-----0------0---0-----0------0---0-6--0-/----|


Repeat Verse
Repeat Chorus


Both Gtrs, Gtr 3 Lead (to be added)
|------------------------|
|------------------------|
|------------------------|
|------------------------|
|-2---------2------------|
|-0---------0-------\----|


Both Gtrs
  PM----------------------------------------------------|
|----------------------------------------------------------------|
|----------------------------------------------------------------|
|---------------------------------------------------------6-7----|
|---------------------------------------------------------7-7----|
|----------------------------------------------------------------|
|-7-7-7-7-7-7-7-7-7-7-7-7-7-7-7-7-7-7-7-7-7-7-7-7-7-7-7-7--------|


  PM------------------------------------------------------------|
|--------------------------------------------------------------------|
|--------------------------------------------------------------------|
|--------------------------------------------------------------------|
|--------------------------------------------------------------------|
|--------------------------------------------------------------------|
|-7-7-7-7-7-7-7-7-7-7-7-7-7-7-7-7-7-7-7-7-7-7-7-7-7-\-\-\-\-\-\-\----|


  PM------------------------------------------------------|
|-----------------------------------------------------------------|
|-----------------------------------------------------------------|
|-----------------------------------------------------------------|
|-----------------------------------------------------------10----|
|------------------------------------------------------------8----|
|-0-0-0-0-0-0-0-0-0-0-0-0-0-0-0-0-0-0-0-0-0-0-0-0-0-0-0-0-0-------|


  PM----------------------------------------------------|
|----------------------------------------------------------------|
|----------------------------------------------------------------|
|---------------------------------------------------------6-7----|
|---------------------------------------------------------7-7----|
|----------------------------------------------------------------|
|-7-7-7-7-7-7-7-7-7-7-7-7-7-7-7-7-7-7-7-7-7-7-7-7-7-7-7-7--------|


Both Gtrs
                   PM---------------------------|
|----------------------------------------------------|
|----------------------------------------------------|
|----------------------------------------------------|
|---------------7------------------------------------|
|-5-------3--2--5------------------------------------|
|-3-------1--0-----0--0-0-0-0-0-0-0-0-0-0-0-0-0-0----|


                   PM--------------------|
|---------------------------------------------|
|---------------------------------------------|
|---------------------------------------------|
|---------------7-----------------------------|
|-5-------3--2--5-----------------------------|
|-3-------1--0-----0-0-0-0-0-0-0-0-0--0--0----|


                    PM------------|     PM  PM---|
|-----------------------------------------------------|
|-----------------------------------------------------|
|-----------------------------------------------------|
|----------------7------------------------------------|
|-5-------3--2--5----------5-7-7-7-7p5---5------------|
|-3-------1--0-----0-0-5-7-------------7---7-6-5-0----|


|--------------------|
|--------------------|
|--------------------|
|---------------7----|
|-5-------3--2--5----|
|-3-------1--0-------|


Gtr 1, Gtr 2 accentuates parts
  PM----------------|     PM|
|--------------------------------------|
|--------------------------------------|
|--------------------------------------|
|--------------------------------------|
|---------------------3p2-----3p2p0----|
|-3-0-0-3-0-0-3-0-0-0-----3-0----------|


  PM----------------|     PM|
|---------------------------------|
|---------------------------------|
|---------------------------------|
|---------------------------------|
|---------------------3p2---------|
|-3-0-0-3-0-0-3-0-0-0-----3-0-\---|


Repeat Verse
Repeat Chorus


Both Gtrs
  PM------------------------------------------------------------|
|--------------------------------------------------------------------|
|--------------------------------------------------------------------|
|--------------------------------------------------------------------|
|--------------------------------------------------------------------|
|--------------------------------------------------------------------|
|-3-0-0-0-0-0-0-0-3-0-0-0-0-0-0-0-3-0-0-0-0-0-0-0-3-0-3-0-3-0-0-0----|


  PM------------------------------------------------------------|
|--------------------------------------------------------------------|
|--------------------------------------------------------------------|
|--------------------------------------------------------------------|
|--------------------------------------------------------------------|
|--------------------------------------------------------------------|
|-3-0-0-0-0-0-0-0-3-0-0-0-0-0-0-0-3-0-0-0-3-0-0-0-3-0-0-0-6-5-3-0----|


  PM------------------------------------------------------------|
|--------------------------------------------------------------------|
|--------------------------------------------------------------------|
|--------------------------------------------------------------------|
|--------------------------------------------------------------------|
|--------------------------------------------------------------------|
|-3-0-0-0-6-5-3-0-3-0-0-0-6-5-3-0-3-0-0-0-6-5-3-0-3-0-0-0-6-5-3-0----|


  PM------------------------------------------------------------|
|--------------------------------------------------------------------|
|--------------------------------------------------------------------|
|--------------------------------------------------------------------|
|--------------------------------------------------------------------|
|--------------------------------------------------------------------|
|-3-0-0-0-6-5-3-0-3-0-0-0-6-5-3-0-3-0-0-0-6-5-3-0-3-0-0-0-6-5-3-0----|


|---------|
|---------|
|---------|
|-----3---|
|---------|
|--1------|


Gtr 1
  PM--|
|---------------|
|---------------|
|---------------|
|-------9--9\---|
|-------7--7\---|
|-0-0-0---------|


Gtr 2
  PM--|
|-----------------|
|-----------------|
|-----------------|
|-------12--12\---|
|-------10--10\---|
|-0-0-0-----------|


Tablature Legend
----------------
 h   - hammer-on
 p   - pull-off
 b   - bend
 pb  - pre-bend
 r   - bend release (if no number after the r, then release immediately)
 /\  - slide into or out of (from/to "nowhere")
 s   - legato slide
 S   - shift slide
  - natural harmonic
[n]  - artificial harmonic
n(n) - tapped harmonic
 ~   - vibrato
 tr  - trill
 T   - tap
 TP  - trem. picking
 PM  - palm muting
\n/  - tremolo bar dip; n = amount to dip
 \n  - tremolo bar down
 n/  - tremolo bar up
/n\  - tremolo bar inverted dip
 =   - hold bend; also acts as connecting device for hammers/pulls
 <>  - volume swell (louder/softer)
 x   - on rhythm slash represents muted slash
 o   - on rhythm slash represents single note slash

Misc Legend
-----------
 |  - bar
||  - double bar
||o - repeat start
o|| - repeat end
*|  - double bar (ending)
 :  - bar (freetime)
 $  - Segno
 &  - Coda
Tempo markers -  = BPM(8/16=s8/s16), where s8 = swing 8ths, s16 = swing 16ths
Suggest correction
Give kudos to tab author, rate the tab!
1 2 3 4 5
comments
print report bad tab
guest
You may want to rate the tab now too:
select rating
Wanna post a correction for this tab? Suggest correction