Oops, an error
Loading. Please wait.

Gore Gore Gadget Tab

version 1
version 1

Intro

Whole song

Interactive

2,560 views 1 this week
no commentswrite comment
1 2 3 4 5
please rate
add to favorites
launch autoscroll
font size
0
reset
how to read this tab
guitar tuner
Autoscroll
slow
fast
+/-
esc
set tempo
stop
Help us to improve Ultimate-Guitar.com Take our survey!
×
Author
Difficulty
Tuning
novice
B F# B E G# C#
. - Palm Mute


---------------------------------------------------------------------|
---------------------------------------------------------------------|
---------------------------------------------------------------------|
-0-0-0--4-4-4-7-7-7-6-6-6-3-3-3--0-0-0--4-4-4-7-7-7-6-6-6-3-3-3------|
-0-0-0---------------------------0-0-0-------------------------------|
-0-0-0---------------------------0-0-0-------------------------------|
 . . .                           . . .


---------------------------------------------------------------------|
---------------------------------------------------------------------|
---------------------------------------------------------------------|
-0-0-0--4-4-4-7-7-7-6-6-6-3-3-3-4-4-4-7-7-7-6-6-6-3-3-3---11-10-7----|
-0-0-0---------------------------------------------------------------|
-0-0-0---------------------------------------------------------------|
 . . .
Suggest correction
Give kudos to tab author, rate the tab!
1 2 3 4 5
comments
print report bad tab
guest
You may want to rate the tab now too:
select rating
Please do not post tabs as comments. Select "correction" instead!