Oops, an error
Loading. Please wait.

Human Dust Tab

version 1
version 1

Intro

Whole song

809 views 1 this week
3 commentsread comments
1 2 3 4 5
3 more votes to show rating
add to favorites
launch autoscroll
font size
0
reset
how to read this tab
guitar tuner
Autoscroll
slow
fast
+/-
esc
set tempo
stop
Help us to improve Ultimate-Guitar.com Take our survey!
×
Author
Difficulty
novice
Artist: Annotations of an Autopsy
Album: Before the Throne of Infection
  - Human Dust Intro


                         x4
-------------------------|
-------------------------|
-------------------------|
-00000--0-0--00000-------|
-00000--0-0--00000-------|
-00000--0-0--00000-------|
 .....  . .  .....

                         x3
-------------------------|
-------------------------|
-------------------------|
-------------------------|
-------5-----------------|
-5-7-4---8-5-7-2---------|
|-tremelo


|-4th time do this
-------------------------|
-------------------------|
-------------------------|
-----------5-7-5-4-5-----|
-------5---5-7-5-4-5-----|
-5-7-4---8-5-7-5-4-5-----|
           . . . . .

                             x4 fast/x4 slow
-----------------------------|
-----------------------------|
-----------------------------|
-5--2-3-2--2-3-2-3-----------|
-5--2-3-2--2-3-2-3----242----|
----2-3-2--2-3-2-3-242-------|
    . . .  . . . .



good luck with the rest
      -|deadhumbucker|-


Suggest correction
Give kudos to tab author, rate the tab!
1 2 3 4 5
comments
print report bad tab
3 comments total.
0 reply
deadhumbucker 16 Jun 05, 2008 12:45 PM

This is in Drop A

0 reply
ASTHESUNSETS__ 94 Jun 05, 2008 02:28 PM

they posted the tab of this song on their myspace ... i seriously wonder why you're even trying

0 reply
Shredder Guitar 40 Jun 09, 2008 07:29 PM

its in drop B dead... they have the majority of their badass tunes tabbed up on their myspace blogs.

guest
You may want to rate the tab now too:
select rating
Wanna post a correction for this tab? Suggest correction