Oops, an error
Loading. Please wait.

Welcome To Sludge City Bass Tab

version 1
version 1

Whole song

Interactive

3,115 views 1 this week
no commentswrite comment
1 2 3 4 5
excellent!
x 1
add to favorites
launch autoscroll
font size
0
reset
guitar tuner
Tab Pro tools
  • play this tab
  • loop segment
  • change instrument
  • show fretboard
  • metronome
Autoscroll
slow
fast
+/-
esc
set tempo
stop
Contributor
Difficulty
Tuning
novice
B F# B E G# C#
Band: Annotations of an Autopsy
Song: Welcome to Sludge City
Album/EP: Welcome to Sludge City
Record Label: This City is Burning

Tabbed By : Murphy (“.)
e-mail: murphy14@fastmail.co.uk


Tuning: DROP B (B-F#-B-E)

|---------------------------------------------------|
|---------------------------------------------------|
|---------------8-8-8-8-8-8-8-8-7-7-7-7-5-5-5-5-----|
|-0--0-0-0--0-0-------------------------------------|

|---------------------------------------------------|
|---------------------------------------------------|
|---------------8-8-8-8-8-8-8-8-7-7-7-7-10-10-10-10-|
|-0--0-0-0--0-0-------------------------------------|

|---------------------------------------------------|
|---------------------------------------------------|
|---------------8-8-8-8-8-8-8-8-7-7-7-7-------------|
|-0--0-0-0--0-0-------------------------10-10-10-10-|

|--------------------------------------|
|--------------------------------------|
|---------------8~-7~----10~-8~-7~-----|
|-0--0-0-0--0-0------10~----------10~--|
           	             |slow this section down|

Play everything above once, then slow it down and play the same thing again

Pause

|----------------------------------------------------|
|----------------------------------------------------| x4
|-3-3-2-2----5-5-3-3---------------------------------|
|---------3-3--------3-3-1-1-1-1---------------------|

|-----------------|
|-----------------|x8
|-----------------|
|-1-2-1-3-2-1-2-1-|

|-----------------------------------|
|-----------------------------------|x2
|-----------------------------------|
|-1-2-1-3-2-1-------1-2-1-3-2-1-2-1-|

|------------------|
|------------------|
|------------------|
|-0----------------|

|---------------------------------|    |---------------------------------|
|---------------------------------|x2  |---------------------------------|
|----------2-(x8)-3-(x8)----------|    |---3(x4)--2(x4)--6(4)--5(x4)-----|
|-0-0-0-0----------------3-(x16)--|    |---------------------------------|


|----------------------------------------------------|
|----------------------------------------------------|x2
|----------------------------------------------------|
|-0-0-0-----0-0-0-0--0-0-0-0-3-2-6-5-----------------|

|----------------------------------------------------|
|----------------------------------------------------|x2
|----------------------------------------------------|
|-3-(x8)---2-(x8)------------------------------------|

|----------------------------------------------------|
|----------------------------------------------------|x2
|----------------------------------------------------|
|-3-(x16)-2-(x8)-1-(x8)------------------------------|

|----------------------------------------------------|
|----------------------------------------------------|x4
|----------------------------------------------------|
|-3-3-3-3----------2-2-2-2-----4-4—4-----------------|

|----------------------------------------------------|
|----------------------------------------------------|x4
|----------------------------------------------------|
|-3-3-3-3----------2-2-2-2-----4-4—4-----------------|
|------slowed down------|


~ = let ring
(x8) = play 8 times
comments
We did not receive enough feedback on this tab! Please rate:
print report bad tab
1 2 3 4 5
I want to post or [tab]
guest
You may want to rate the tab now too:
select rating
Please do not post tabs as comments. Select "correction" instead!