Oops, an error
Loading. Please wait.

Welcome To Sludge City Tab

version 1
version 1

Whole song

Interactive

13,158 views 1 this week
8 commentsread comments
1 2 3 4 5
x 6
add to favorites
launch autoscroll
font size
0
reset
how to read this tab
guitar tuner
Autoscroll
slow
fast
+/-
esc
set tempo
stop
Help us to improve Ultimate-Guitar.com Take our survey!
×
Author
Difficulty
novice
Artist - Annotations of an Autopsy
Song - Welcome to Sludge City
Album - Welcome to Sludge City
Label - This City is Burning
Website - http://www.myspace.com/annotationsofanautopsy
aoaamusic.blogspot.com

Tuning - Drop B (Drop C down a half step)
. - Palm Mute
* - Pinch Harmonic
~ - Let Ring


---------------------------------------------------|
---------------------------------------------------|
---------------------------------------------------|
-0--0-0-0--0-0-------------------------------------|
-0--0-0-0--0-0-8-8-8-8-8-8-8-8-7-7-7-7-5-5-5-5-----|
-0--0-0-0--0-0-------------------------------------|
 .  . . .  . .

---------------------------------------------------|
---------------------------------------------------|
---------------------------------------------------|
-0--0-0-0--0-0-------------------------------------|
-0--0-0-0--0-0-8-8-8-8-8-8-8-8-7-7-7-7-10-10-10-10-|
-0--0-0-0--0-0-------------------------------------|
 .  . . .  . .

---------------------------------------------------|
---------------------------------------------------|
---------------------------------------------------|
-0--0-0-0--0-0-------------------------------------|
-0--0-0-0--0-0-8-8-8-8-8-8-8-8-7-7-7-7-------------|
-0--0-0-0--0-0-------------------------10-10-10-10-|
 .  . . .  . .

----------------------------------------------------------------------------------|
----------------------------------------------------------------------------------|
----------------------------------------------------------------------------------|
-0--0-0-0--0-0--------------------------------------------------------------------|
-0--0-0-0--0-0-8-8-8-8-7-7-7-7------------10-10-10-10-8-8-8-8-7-7-7-7-------------|
-0--0-0-0--0-0-----------------10-10-10-10----------------------------10-10-10-10-|
 .  . . .  . .

Play everything above once, then slow it down and play the same thing again

----------------------------------------------------|
----------------------------------------------------|
----------------------------------------------------|
----------------------------------------------------|
-3-3-2-2----5-5-3-3---------------------------------|
---------3-3--------3-3-1-1-1-1---------------------|

Play the Above four times alone then four times again with two guitars.

----------------------------------------------------|
----------------------------------------------------|
----------------------------------------------------|
-1-2-1-3-2-1-2-1------------------------------------|
-1-2-1-3-2-1-2-1-After four times do this pinch-----|
-1-2-1-3-2-1-2-1--------------------------------1---|
 . . . . . . . .                                *

Then after four more times through the crawl part play this pinch

----------------------------------------------------|
----------------------------------------------------|
----------------------------------------------------|
----------------------------------------------------|
-3--------------------------------------------------|
----------------------------------------------------|
 *

----------------------------------------------------|
----------------------------------------------------|
----------------------------------------------------|
-1-2-1-3-2-1-------1-2-1-3-2-1-2-1------------------|
-1-2-1-3-2-1-------1-2-1-3-2-1-2-1------------------|
-1-2-1-3-2-1-------1-2-1-3-2-1-2-1------------------|
 . . . . . .       . . . . . . . .

Play the Above twice

----------------------------------------------------|
----------------------------------------------------|
----------------------------------------------------|
-0~-------------------------------------------------|
-0~-------------------------------------------------|
-0~-------------------------------------------------|

-------------------------------------------------------------|
-------------------------------------------------------------|
-------------------------------------------------------------|
-1-1-1-1------------------1-1-1-1-1-1-1-1--------------------|
-1-1-1-1--2-x8-3-x8-------1-1-1-1-1-1-1-1-3-x4-2-x4-6-x4-5x4-|
-0-0-0-0------------3x19?-0-0-0-0-0-0-0-0--------------------|
 . . . .                  . . . . . . . .

Play the Above twice

----------------------------------------------------|
----------------------------------------------------|
----------------------------------------------------|
-0-0-0-----0-0-0-0--0-0-0-0-3-2-6-5-----------------|
-0-0-0-----0-0-0-0--0-0-0-0-3-2-6-5-----------------|
-0-0-0-----0-0-0-0--0-0-0-0-3-2-6-5-----------------|
 . . .     . . . .  . . . . . . . .

Play the Above twice

----------------------------------------------------|
----------------------------------------------------|
----------------------------------------------------|
-3----2---------------------------------------------|
-2-x8-1-x8------------------------------------------|
-3----2---------------------------------------------|
 .    .

Play the Above twice

----------------------------------------------------|
----------------------------------------------------|
----------------------------------------------------|
----------------------------------------------------|
----------------------------------------------------|
-3-x16-2-x8-1-x8------------------------------------|

Play the above twice

----------------------------------------------------|
----------------------------------------------------|
----------------------------------------------------|
----------------------------------------------------|
-3-3-3-3------2-2------1-1--------------------------|
-2-2-2-2-2-x8-1-1-1-x4-0-0-4-x4---------------------|
-3-3-3-3------2-2------1-1--------------------------|
 . . . .      . .      . .

Play the above 4 times, then slow it down and play an additional 4 times.
Suggest correction
comments
print report bad tab
8 comments total. Showing first comments.
+1 reply
piercedsnocat 10 Oct 03, 2007 10:51 AM

great tab, only seen one error on the last riff but if you listen to the song you catch it right away

+1 reply
xchaseedgex 801 Jan 28, 2008 01:10 AM

Yeah, it should be on the first fret instead of fourth. My bad.

+1 reply
xchaseedgex 801 Jun 29, 2008 03:41 AM

fixed.

guest
You may want to rate the tab now too:
select rating
Wanna post a correction for this tab? Suggest correction