Oops, an error
Loading. Please wait.

Welcome To Sludge City Tab

version 2
version 2

Whole song

Interactive

421 views 1 this week
no commentswrite comment
1 2 3 4 5
please rate
add to favorites
launch autoscroll
font size
0
reset
how to read this tab
guitar tuner
Tab Pro tools
  • play this tab
  • loop segment
  • change instrument
  • show fretboard
  • metronome
×
Best way to learn
"Welcome To Sludge City"
Autoscroll
slow
fast
+/-
esc
set tempo
stop
Contributor
Difficulty
Tuning
novice
B F# B E G# C#
Welcome to Sludge City
Annotations Of An Autopsy
Drop B (C down half step)
(--------------------------------|------------------------------------|
(--------------------------------|------------------------------------|
(--------------------------------|------------------------------------|
(-0--0-0-0--0-0------------------|-0--0-0-0--0-0----------------------|
(-0--0-0-0--0-0-8888888877775555-|-0--0-0-0--0-0-88888888777710101010-|
(-0--0-0-0--0-0------------------|-0--0-0-0--0-0----------------------|
( .  . . .  . .                    .  . . .  . .
--------------------------------|
--------------------------------|
--------------------------------|
-0--0-0-0--0-0------------------|
-0--0-0-0--0-0-888888887777-----|
-0--0-0-0--0-0-------------8888-|
 .  . . .  . .
------------------------------------|)
------------------------------------|)
------------------------------------|)
-0--0-0-0--0-0----------------------|)
-0--0-0-0--0-0-8877------10108877---|)
-0--0-0-0--0-0-----8888----------88-|)
 .  . . .  . .                       )x2 (Second Time, BREAKDOWN!!!)
--------------------------------------------------------------------|
--------------------------------------------------------------------|
--------------------------------------------------------------------|
--------------------------------------------------------------------|
-2211--5533-------2211--5533-------2211--5533-------2211--5533------|
-----33----331111-----33----331111-----33----331111-----33----331111|

--------------------------------------------------------------------|
--------------------------------------------------------------------|
--------------------------------------------------------------------|
--------------------------------------------------------------------|
-2211--5533-------2211--5533-------2211--5533-------2211--5533------|
-----33----331111-----33----331111-----33----331111-----33----331111|

------------------------------------------------------------------|
------------------------------------------------------------------|
------------------------------------------------------------------|
-2-1-0-4-2-1-2-1-2-1-0-4-2-1-2-1-2-1-0-4-2-1-2-1-2-1-0-4-2-1--(1)-|
-2-1-0-4-2-1-2-1-2-1-0-4-2-1-2-1-2-1-0-4-2-1-2-1-2-1-0-4-2-1------|
-2-1-0-4-2-1-2-1-2-1-0-4-2-1-2-1-2-1-0-4-2-1-2-1-2-1-0-4-2-1------|
 . . . . . . . . . . . . . . . . . . . . . . . . . . . . . .
------------------------------------------------------------------|
------------------------------------------------------------------|
------------------------------------------------------------------|
-2-1-0-4-2-1-2-1-2-1-0-4-2-1-2-1-2-1-0-4-2-1-2-1-2-1-0-4-2-1------|
-2-1-0-4-2-1-2-1-2-1-0-4-2-1-2-1-2-1-0-4-2-1-2-1-2-1-0-4-2-1------|
-2-1-0-4-2-1-2-1-2-1-0-4-2-1-2-1-2-1-0-4-2-1-2-1-2-1-0-4-2-1--(3)-|
 . . . . . . . . . . . . . . . . . . . . . . . . . . . . . .
---------------------------------------------------------------------------|    
---------------------------------------------------------------------------|
---------------------------------------------------------------------------|
-2-1-0-4-2-1-----2-1-0-4-2-1-2-1-2-1-0-4-2-1-----2-1-0-4-2-1-2-1-------0~--|
-2-1-0-4-2-1-----2-1-0-4-2-1-2-1-2-1-0-4-2-1-----2-1-0-4-2-1-2-1-------0~--|
-2-1-0-4-2-1-----2-1-0-4-2-1-2-1-2-1-0-4-2-1-----2-1-0-4-2-1-2-1-------0~--|
 . . . . . .     . . . . . . . . . . . . . .     . . . . . . . .
------------------------------------------------------------------------|
------------------------------------------------------------------------|
------------------------------------------------------------------------|
-1-1-1-1----------------------------------1111-1-1-1-1------------------|
-1-1-1-1-22222222333333-------------------1111-1-1-1-1-3333222266665555-|
-0-0-0-0---------------333333333333333333-0000-0-0-0-0------------------|x2
 . . . .                                  .... . . . .
-------------------------------------------------------------------|
-------------------------------------------------------------------|
-------------------------------------------------------------------|
-0-0-0-----0000-0-0-0-0-3-2-6-5---0-0-0-----0000-0-0-0-0-3-2-6-5---|
-0-0-0-----0000-0-0-0-0-3-2-6-5---0-0-0-----0000-0-0-0-0-3-2-6-5---|
-0-0-0-----0000-0-0-0-0-3-2-6-5---0-0-0-----0000-0-0-0-0-3-2-6-5---|
 . . .     .... . . . . . . . .   . . .     .... . . . . . . . .
--------------------------------------------------------------------------|
--------------------------------------------------------------------------|
--------------------------------------------------------------------------|
-3-3-3-3-3-3-3-3----2-2-2-2-2-2-2-2----3-3-3-3-3-3-3-3----2-2-2-2-2-2-2-2-|
-2-2-2-2-2-2-2-2----1-1-1-1-1-1-1-1----2-2-2-2-2-2-2-2----1-1-1-1-1-1-1-1-|
-3-3-3-3-3-3-3-3----2-2-2-2-2-2-2-2----3-3-3-3-3-3-3-3----2-2-2-2-2-2-2-2-|
 . . . . . . . .    . . . . . . . .    . . . . . . . .    . . . . . . . .

------------------------------------------------------------------|
------------------------------------------------------------------|
------------------------------------------------------------------|
------------------------------------------------------------------|
------------------------------------------------------------------|
-3333333333333333222222221111111133333333333333332222222211111111-|

----------------------------------------------------------------------|
----------------------------------------------------------------------|
----------------------------------------------------------------------|
-3-3-3-3------2-2-2-2------1-1------3-3-3-3------2-2-2-2------1-1-----|
-2-2-2-2-2222-1-1-1-1-1111-0-0-4444-2-2-2-2-2222-1-1-1-1-1111-0-0-4444|
-3-3-3-3------2-2-2-2------1-1------3-3-3-3------2-2-2-2------1-1-----|x2
 . . . .      . . . .      . .      . . . .      . . . .      . .
B R E A K D O W N ! ! !
----------------------------------------------------------------------|
----------------------------------------------------------------------|
----------------------------------------------------------------------|
-3-3-3-3------2-2-2-2------1-1------3-3-3-3------2-2-2-2------1-1-----|
-2-2-2-2-2222-1-1-1-1-1111-0-0-4444-2-2-2-2-2222-1-1-1-1-1111-0-0-4444|
-3-3-3-3------2-2-2-2------1-1------3-3-3-3------2-2-2-2------1-1-----|x2
 . . . .      . . . .      . .      . . . .      . . . .      . .

comments
We did not receive enough feedback on this tab! Please rate:
print report bad tab
1 2 3 4 5
I want to post or [tab]
guest
You may want to rate the tab now too:
select rating
Please do not post tabs as comments. Select "correction" instead!