Oops, an error
Loading. Please wait.

Years Of Disgust Tab

3,669 views 1 this week
2 commentsread comments
1 2 3 4 5
x 6
add to favorites
launch autoscroll
font size
0
reset
how to read this tab
guitar tuner
Autoscroll
slow
fast
+/-
esc
set tempo
stop
Help us to improve Ultimate-Guitar.com Take our survey!
×
Author
Difficulty
Tuning
advanced
B F# B E G# C#
------------------------------------------------
OFFICIAL ANNOTATIONS OF AN AUTOPSY GUITAR TAB
------------------------------------------------
Years Of Disgust - Before The Throne Of Infection

Tuning - B F# B E G# C#

AOAA uses:

Guitar: ESP MHB400 (Baritone) / ESP EC1000 VB
Guitar Head: Peavey 6505+
Guitar Cab: Framus Dragon 4x12
Strings: D'Addario Nickel Wound EJ Jazz 13 - 56

And you will get the right tone!

Key: Palm Mute - .
     Trem - ^
     Squeelie baby - *
     Hammer time - h
     Pull off - p
     Note Slide - /
     Vibrato - #

Tab written by Jamie Sweeney

This tab is official! So don't tell me you found a mistake!
Thx and enjoy.

Intro

|-------------------------------------|
|-------------------------------------|
|-------------------------------3*----|
|-------------------------------------|
|-2-1-3-2-1-3-2-1-3-2-1-3-2-1-0-------|
|-2-1-3-2-1-3-2-1-3-2-1-3-2-1-0-------| x4
PM. . . . . . . . . . . . . . .

(This riff comes in after 2nd time of above riff)
|------------------------------------|
|------------------------------------|
|------------------------------------|
|------------------------------------|
|-0-0---0-0---0-0---0-0--------------|
|-0-0---0-0---0-0---0-0---11112222---| x2
PM. .   . .   . .   . .

|------------------------------------|
|------------------------------------|
|------------------------------------|
|------------------------------------|
|-1-1---1-1---1-1---1-1--------------|
|-2-2---2-2---2-2---2-2---22222222---| x2
PM. .   . .   . .   . .

|------------------------------------|
|------------------------------------|
|------------------------------------|
|------------------------------------|
|-0-0---0-0---0-0---0-0--------------|
|-0-0---0-0---0-0---0-0---11112222---| x2
PM. .   . .   . .   . .

|------------------------------------|
|------------------------------------|
|------------------------------------|
|------------------------------------|
|-1-1---1-1---1-1---1-1--------------|
|-2-2---2-2---2-2---2-2---22222222---| x2
PM. .   . .   . .   . .

(Second Guitar rings out on last time)

|------|
|------|
|------|
|------|
|-0~---|
|-0~---|

(This riff then starts over ring out)
|--------------------|---------------------|
|--------------------|---------------------|
|--------------------|---------------------|
|--------------------|--------------6^-----|
|------1^------4^----|------1^--------5^---|
|-2^-1^---2^-1^--4^--|-2^-1^---2^-1^-------| x2 trem picked

|-------------------------------------------------------------------------|
|-------------------------------------------------------------------------|
|-------------------------------------------------------------------------|
|-------------------------------------------------------------------------|
|-2-1----2-1----2-1-------------------2-1-2*-2-1-2*-2-1-----1111----------|
|-2-1-2*-2-1-2*-2-1-4411333300000000--2-1----2-1----2-1-4411----00000000--| x2
PM. .    . .    . .                   . .    . .    . .

|-------------------------------------------------------------------|
|-------------------------------------------------------------------|
|-------------------------------------------------------------------|
|-------------------------------------------------------------------|
|-------------2222----------------111111111111------------55555555--|
|-222222222222----4444444455555555------------222211111111----------|

|-------------------------------------------------------------------|
|-------------------------------------------------------------------|
|-------------------------------------------------------------------|
|-------------------------------------------------------------------|
|-------------2222----------------------------11115555555544444444--|
|-222222222222----4444444455555555111111111111----------------------|

|-------------------------------------------------------------------|
|-------------------------------------------------------------------|
|-------------------------------------------------------------------|
|-------------------------------------------------------------------|
|-------------222211111111--------------------55554444444422222222--|
|-222222222222------------44444444111111111111----------------------| x2

(Ring out)
|----------|
|----------|
|----------|
|-0~-------|
|-0~-------|
|-0~-------|

(Rest)
(1st guitar comes in for 4x followed by 2nd guitar for another x4)
|----------------------|
|----------------------|
|----------------------|
|----------------------|
|-2-1-4-2-0-1----------|
|-2-1-4-2-0-2-0-2*-----| x8
PM. . . . . . .

(SLOW IT DOWN)

Repeat 4x
|--------------------------|---------------------------|
|--------------------------|---------------------------|
|--------------------------|---------------------------|
|-2--1--4--2--0------------|-2--1--4--2--0-------------|
|-2--1--4--2--0--1---------|-2--1--4--2--0--2*---------|
|-2--1--4--2--0--2-0-2*----|-2--1--4--2--0----0-2*-----|
PM.  .     .  .              .  .     .  .

|-------|
|-------|
|-------|
|-0~--0~|
|-0~--0~|
|-1~--1~|

Repeat 4x
|----------------------------------------|----------------------------------------|
|----------------------------------------|----------------------------------------|
|----------------------------------------|----------------------------------------|
|-2-1-------------------------------1-2--|-2-1-------------------------------3-4--|
|-2-1-----22----11----44----22------1-2--|-2-1-----22----11----44----22------3-4--|
|-2-1-2211--2211--2211--2211--2211--1-2--|-2-1-2211--2211--2211--2211--2211--3-4--|
PM. .					   . .

|--------------------|
|--------------------|
|--------------------|
|-4-3-3-4--2-1-1h2---|
|-4-3-3h4--2-1-1h2---|
|-4-3-3h4--2-1-1h2---|
PM. .      . .

|--------------------------|----------------------------|
|--------------------------|----------------------------|
|--------------------------|--------------3-------------|
|-2-1----------------------|-1-0------1-0-x-------------| x3
|-2-1-------1^-------------|-1-0-2^---1-0-1-------------|
|-2-1-2^-4^----4^-2^-1^----|-1-0---2^-1-0---------------|
PM. .  			     . .      . .

(On the 4th time end on this)
|------------------------|
|------------------------|
|------------------------|
|-2-1--------------------|
|-2-1-------1^-----------|
|-2-1-2^-4^----4^-2^-1^--|
PM. .

|-------------------------------------------|
|-------------------------------------------|
|-------------------------------------------|
|-1-0----1-0----1-0----1-0----1-0----1-0----| x2
|-1-0----1-0----1-0----1-0----1-0----1-0----|
|-1-0-1^-1-0-4^-1-0-3^-1-0-1^-1-0-7^-1-0-6^-|
PM. .    . .    . .    . .    . .    . .

		x1					x3
|---------------------------------------|-----------------------------------|
|---------------------------------------|-----------------------------------|
|---------------------------------------|-----------------------------------|
|-1-0-1~--4-3-----6-5----2~-------------|-1~---4-3-----6-5----2~------------|
|-1-0-1~--4-3-----6-5----2~--11111111---|-1~---4-3-----6-5----2~--11111111--|
|-1-0-1~--4-3-4^--6-5-6^-2~--22222222---|-1~---4-3-4^--6-5-6^-2~--22222222--|
PM. .     . .     . .                          . .     . .

SOLO

|-------------------18h19p18h19----------------------------------------------------|
|-16-15-----------19-----------18h19p18h19-----------------------16-12-15-9#-------|
|-------16-15#--20------------------------18h19p18h19------------------------------|
|----------------------------------------------------17h18p17h18-------------------|
|----------------------------------------------------------------------------------|
|----------------------------------------------------------------------------------|

---------------------------|
---------------------------|
0^7^8^---------------------|
--9^/16-15-13-15-9#--------|
---------------------------|
---------------------------|

|-------------------------------------------------------|
|-------------------------------------------------------|
|-------------------------------------------------------|
|---------12h13h15t1712h15t1812h15--16-15-13-15/19-18*--| (bend harmonic)
|-12h13h15----------------------------------------------|
|-------------------------------------------------------|

(Your soul is dead - Vocal Break)

|--------------|    |----------------------|
|--------------|    |----------------------|
|--------------|    |----------------------|
|-0-4-2~-1-3-0-| x3 |-0-4-2--1-3~----------|
|-0-4-2~-1-3-0-|    |-0-4-2--1-3~----------|
|-0-4-2~-1-3-0-|    |-0-4-2~-1-3~-000000-3-| (bend last note (3) up)
PM. .		      . .

|-------------------|
|-------------------|
|-------------------|
|-0-4-222-4-3-4-1---| x4
|-0-4-222-4-3-4-1x8-|
|-0-4-222-4-3-4-1---|
PM. . ... . . . .

(Trem Riff)

|----------------------|    |-----------------------|
|----------------------|    |-----------------------|
|----------------------|    |-----------------------|
|----------------------| x4 |-----0-4-222-4-3-4-1---| x4
|----------2^----4^----|    |-----0-4-222-4-3-4-1x8-|
|-0^-4^-2^----2^----1^-|    |-12\-0-4-222-4-3-4-1---|
PM				  . . ... . . . .

|----------------|------------------|----------------|-----------------|
|----------------|------------------|----------------|-----------------|
|----------------|---------------6*-|----------------|-----------------|
|----------------|-6-5-6-5-8-6-5----|----------------|-6-5-6-5-8-6-5-6-|
|----------------|-6-5-6-5-8-6-5----|----------------|-6-5-6-5-8-6-5-6-|
|-6^-8^-9^-6^-5^-|-6-5-6-5-8-6-5----|-6^-8^-9^-6^-5^-|-6-5-6-5-8-6-5-6-|
PM		   . . . . . . .		       . . . . . . .

|-------------------------|    |-------------------------------|
|-------------------------|    |-------------------------------|
|-------------------------|    |-------------------------------|
|-------------------------| x2 |-------------------------------| x2
|----------------5^-6^-8^-|    |-------------------------------|
|-3^-2^-3^-2^-0^----------|    |-3^-2^-3^-2^-5^-3^-2^-5^-7^-8^-|

SMALL SLIGHT BREAK

|-------------------------------|
|-------------------------------|
|-------------------------------|
|-2-3---2-3-2-5-3-2-5-7---------| (Repeat to fade or just 4x)
|-2-3x8-2-3-2-5-3-2-5-7x8-------|
|-2-3---2-3-2-5-3-2-5-7---8^x16-|
PM. .   . . . . . . . .

Thank fuck.
Suggest correction
comments
print report bad tab
2 comments total.
0 reply
Evil_Jester_666 10 Nov 22, 2008 12:05 PM

Gr8 tab, 5*

0 reply
EspMetal616 10 May 14, 2009 10:03 AM

"Squealie baby?" you mean pinch harmonic?

guest
You may want to rate the tab now too:
select rating
Wanna post a correction for this tab? Suggest correction