Oops, an error
Loading. Please wait.

Romanza Tab

version 2
version 2

Whole song

Interactive

84,150 views 162 this week
8 commentsread comments
1 2 3 4 5
excellent!
x 55
add to favorites
launch autoscroll
font size
0
reset
how to read this tab
guitar tuner
Tab Pro tools
  • play this tab
  • loop segment
  • change instrument
  • show fretboard
  • metronome
Autoscroll
slow
fast
+/-
esc
set tempo
stop
Contributor
Difficulty
novice
ROMANZA - ANONIMO / ROMANCE - ANONYMOUS

/ = Slide
^ = Strum
N.H. = Natural Harmonic                    

E|---5/7-------7--------7-------|
B|-------0--------0--------0----|
G|---------0--------0--------0--|
D|------------------------------|
A|------------------------------|
E|---0--------------------------|

|--7--------5--------3--------|--3--------2--------0--------|
|-----0--------0--------0-----|-----0--------0--------0-----|
|--------0--------0--------0--|--------0--------0--------0--|
|-----------------------------|-----------------------------|
|-----------------------------|-----------------------------|
|--0--------------------------|--0--------------------------|

|--0--------3--------7--------|--12--------12--------12--------|
|-----0--------0--------0-----|------0---------0---------0-----|
|--------0--------0--------0--|---------0---------0---------0--|
|-----------------------------|--------------------------------|
|-----------------------------|--------------------------------|
|--0--------------------------|---0----------------------------|

|--12--------10--------8--------|--8--------7--------5--------|
|------0---------0--------0-----|-----5--------5--------5-----|
|---------0---------0--------0--|--------5--------5--------5--|
|-------------------------------|-----------------------------|
|-------------------------------|--0--------------------------|
|---0---------------------------|-----------------------------|

|--5--------7--------8--------|--7--------8--------7--------|
|-----5--------5--------5-----|-----7--------7--------7-----|
|--------5--------5--------5--|--------8--------8--------8--|
|-----------------------------|-----------------------------|
|--0--------------------------|-----------------------------|
|-----------------------------|--7--------------------------|
 
|--11--------8--------7--------|--7--------5--------3--------|
|------7--------7--------7-----|-----0--------0--------0-----|
|---------8--------8--------8--|--------0--------0--------0--|
|------------------------------|-----------------------------|
|------------------------------|-----------------------------|
|---7--------------------------|--0--------------------------|

 
|--3--------2--------0--------|--2--------2--------2--------|
|-----0--------0--------0-----|-----0--------0--------0-----|
|--------0--------0--------0--|--------2--------2--------2--|
|-----------------------------|-----------------------------|
|-----------------------------|--2--------------------------|
|--0--------------------------|-----------------------------|
           
|--2--------3--------2--------|--0--------0--------0--------|--0-^------------|
|-----0--------0--------0-----|-----0--------0--------0-----|--0-^------------|
|--------2--------2--------2--|--------0--------0--------0--|--0-^------------|
|-----------------------------|--2--------------------------|--2-^------------|
|--1--------------------------|-----------2-----------------|--2-^------------|
|-----------------------------|--------------------3--------|--0-^------------|

|---4--------4--------4--------|--4--------2--------0--------|
|------0--------0--------0-----|-----0--------0--------0-----|
|---------1--------1--------1--|--------1--------1--------1--|
|------------------------------|-----------------------------|
|------------------------------|-----------------------------|
|---0--------------------------|--0--------------------------|
  
|-----------------------------|-----------------------------|
|--5--------4--------4--------|--4--------3--------4--------|
|-----2--------2--------2-----|-----2--------2--------2-----|
|--------4--------4--------4--|--------4--------4--------4--|
|--2--------------------------|--2--------------------------|
|-----------------------------|-----------------------------|
 
|--9--------9--------9--------|--9--------11--------9--------|
|-----7--------7--------7-----|-----7---------7--------7-----|
|--------8--------8--------8--|--------8---------8--------8--|
|-----------------------------|------------------------------|
|-----------------------------|------------------------------|
|--7--------------------------|--7---------------------------|
 
|--9--------7--------7--------|--7--------9--------11--------|
|-----9--------9--------9-----|-----9--------9---------9-----|
|--------9--------9--------9--|--------9--------9---------9--|
|-----------------------------|------------------------------|
|-----------------------------|------------------------------|
|--0--------------------------|--0---------------------------|

|--12--------12--------12--------|--12--------11--------10--------|
|------9---------9---------9-----|------9---------9---------9-----|
|---------9---------9---------9--|---------9---------9---------9--|
|--------------------------------|--------------------------------|
|--------------------------------|--------------------------------|
|---0----------------------------|---0----------------------------|
 
|--9--------9--------9--------|--9--------7--------5--------|
|-----5--------5--------5-----|-----5--------5--------5-----|
|--------6--------6--------6--|--------6--------6--------6--|
|-----------------------------|-----------------------------|
|--0--------------------------|--0--------------------------|
|-----------------------------|-----------------------------|

|--4--------4--------4--------|--4--------5--------2--------|
|-----4--------4--------4-----|-----4--------4--------4-----|
|--------2--------2--------2--|--------2--------2--------2--|
|-----------------------------|-----------------------------|
|--2--------------------------|--2--------------------------|
|-----------------------------|-----------------------------|

|--0--------0--------0--------|--0-^------------|
|-----0--------0--------0-----|--0-^------------|
|--------1--------1--------1--|--0-^------------|
|--2--------------------------|--2-^------------|
|-----------2-----------------|--2-^------------|
|--------------------4--------|--0-^------------|
 
|-5/7-------7--------7--------|--7--------5--------3--------|
|-----0--------0--------0-----|-----0--------0--------0-----|
|--------0--------0--------0--|--------0--------0--------0--|
|-----------------------------|-----------------------------|
|-----------------------------|-----------------------------|
|--0--------------------------|--0--------------------------|
  
|--3--------2--------0--------|--0--------3--------7--------|
|-----0--------0--------0-----|-----0--------0--------0-----|
|--------0--------0--------0--|--------0--------0--------0--|
|-----------------------------|-----------------------------|
|-----------------------------|-----------------------------|
|--0--------------------------|--0--------------------------|
  
|--12--------12--------12--------|--12--------10--------8--------|
|------0---------0---------0-----|------0---------0--------0-----|
|---------0---------0---------0--|---------0---------0--------0--|
|--------------------------------|-------------------------------|
|--------------------------------|-------------------------------|
|---0----------------------------|---0---------------------------|
  
|--8--------7--------5--------|--5--------7--------8--------|
|-----5--------5--------5-----|-----5--------5--------5-----|
|--------5--------5--------5--|--------5--------5--------5--|
|-----------------------------|-----------------------------|
|--0--------------------------|--0--------------------------|
|-----------------------------|-----------------------------|
  
|--7--------8--------7--------|--11--------8----------7--------|
|-----7--------7--------7-----|------7----------7--------7-----|
|--------8--------8--------8--|---------8----------8--------8--|
|-----------------------------|--------------------------------|
|-----------------------------|--------------------------------|
|--7--------------------------|---7----------------------------|

|--7----------5--------3--------|--3--------2--------0--------|
|-------0--------0--------0-----|-----0--------0--------0-----|
|----------0--------0--------0--|--------0--------0--------0--|
|-------------------------------|-----------------------------|
|-------------------------------|-----------------------------|
|--0----------------------------|--0--------------------------|
 
|--2--------2--------2--------|--2----------3--------2--------|
|-----0--------0--------0-----|-------0--------0--------0-----|
|--------2--------2--------2--|----------2--------2--------2--|
|-----------------------------|-------------------------------|
|--2--------------------------|--1----------------------------|
|-----------------------------|-------------------------------|

                                            N.H.
|--0--------0--------0--------|----0-^--------12---|
|-----0--------0--------0-----|----0-^--------12---|
|--------0--------0--------0--|----0-^--------12---|
|--2--------------------------|----2-^-------------|
|-----------2-----------------|----2-^-------------|
|--------------------3--------|----0-^-------------|


comments
print report bad tab
8 comments total. Showing first comments.
0 reply
Shizka wrote on November 24 2008, 05:35 pm

This is a great spanish piece of music to start out for newbies :)

0 reply
ROCKSTAR2342 wrote on March 1 2009, 04:24 am

gd work

+7 reply
geetarguy1313 wrote on January 19 2010, 04:21 pm

well, i wouldnt recommen it for newbies, buuut, its a simple, and effecient fingerpicking practice piece. and it attracts women like flies to honey. amirite?

I want to post or [tab]
guest
You may want to rate the tab now too:
select rating
Please do not post tabs as comments. Select "correction" instead!