Oops, an error
Loading. Please wait.

Fight Tab

10 views 1 this week
no commentswrite comment
1 2 3 4 5
2 more votes to show rating
add to favorites
launch autoscroll
font size
0
reset
how to read this tab
guitar tuner
Autoscroll
slow
fast
+/-
esc
set tempo
stop
Help us to improve Ultimate-Guitar.com Take our survey!
×
Author
Difficulty
Tuning
novice
C# G# C# F# A# D#
[Intro]
Volume fades in on first power chord
D#|---------|----------------------|---------------------|---------------------|---------------------|
A#|---------|----------------------|---------------------|---------------------|---------------------|
F#|---------|----------------------|---------------------|---------------------|---------------------|
C#|-9-(9)---|--9-9-----9-9---------|-7-7-----7-7---------|-5-5-----5-5---------|-2-2-----2-2-----2-2-| x2
G#|-9-(9)---|--9-9-x-x-9-9-x-x-9-7-|-7-7-x-x-7-7-x-x-7-5-|-5-5-x-x-5-5-x-x-5---|-2-2-x-x-2-2-x-x-2-2-|
C#|-9-(9)---|-\9-9-x-x-9-9-x-x-----|-7-7-x-x-7-7-x-x-----|-5-5-x-x-5-5-x-x---7-|-2-2-x-x-2-2-x-x-2-2-|

D#|---------------------|--------------------------|-------------------------|-------------------------------|
A#|---------------------|--------------------------|-------------------------|-------------------------------|
F#|---------------------|--------------------------|-------------------------|-------------7-7-------------9-|
C#|-2-2-----2-2-----2-2-|-2-2-----2-2-----2-2-(2)--|-2-2-----2-2-----2-2-(2)-|-------7-7-7-----------9-9-9---|
G#|-2-2-x-x-2-2-x-x-2-2-|-2-2-x-x-2-2-x-x-2-2-(2)--|-2-2-x-x-2-2-x-x-2-2-(2)-|-5-5-5-----------7-7-7---------|
C#|-2-2-x-x-2-2-x-x-2-2-|-2-2-x-x-2-2-x-x-2-2-(2)--|-2-2-x-x-2-2-x-x-2-2-(2)-|-------------------------------|

[Verse]

D#|---------------------|-------------|---------------------|---------------------------------|
A#|---------------------|-------------|---------------------|---------------------------------|
F#|---------------------|-------------|---------------------|-------------7-7-------------9-9-|
C#|-9-9-x-x-9-9-x-x-9-9-|-9-9-(9)-5-7-|-9-9-x-x-9-9-x-x-9-9-|-------7-7-7-----------9-9-9-----| x2
G#|-9-9-x-x-9-9-x-x-9-9-|-9-9-(9)-5-7-|-9-9-x-x-9-9-x-x-9-9-|-5-5-5-----------7-7-7-----------|
C#|-9-9-x-x-9-9-x-x-9-9-|-9-9-(9)-5-7-|-9-9-x-x-9-9-x-x-9-9-|---------------------------------|

[Pre-Chorus]

D#|-------------------------|-------------------------|-------------------------|-------------------------|
A#|-------------------------|-------------------------|-------------------------|-------------------------|
F#|-------------------------|-------------------------|-------------------------|-------------------------|
C#|-(9)-9-x-x-(9)-9-x-x-9-9-|-(9)-9-x-x-(9)-9-x-x-9-9-|-(7)-7-x-x-(7)-7-x-x-7-7-|-(2)-2-x-x-(2)-2-x-x-2-2-| x2
G#|-(9)-9-x-x-(9)-9-x-x-9-9-|-(7)-7-x-x-(7)-7-x-x-7-7-|-(5)-5-x-x-(5)-5-x-x-5-5-|-(2)-2-x-x-(2)-2-x-x-2-2-|
C#|-(9)-9-x-x-(9)-9-x-x-9-9-|-(7)-7-x-x-(7)-7-x-x-7-7-|-(5)-5-x-x-(5)-5-x-x-5-5-|-(2)-2-x-x-(2)-2-x-x-2-2-|

[Chorus]

D#|---------------------|---------------------|---------------------|---------------------|
A#|---------------------|---------------------|---------------------|---------------------|
F#|---------------------|---------------------|---------------------|---------------------|
C#|-9-9-----9-9---------|-7-7-----7-7---------|-5-5-----5-5---------|-2-2-----2-2-----2-2-| x2
G#|-9-9-x-x-9-9-x-x-9-7-|-7-7-x-x-7-7-x-x-7-5-|-5-5-x-x-5-5-x-x-5---|-2-2-x-x-2-2-x-x-2-2-|
C#|-9-9-x-x-9-9-x-x-----|-7-7-x-x-7-7-x-x-----|-5-5-x-x-5-5-x-x---7-|-2-2-x-x-2-2-x-x-2-2-|

D#|---------------------|--------------------------|-------------------------|-------------------------------|
A#|---------------------|--------------------------|-------------------------|-------------------------------|
F#|---------------------|--------------------------|-------------------------|-------------7-7-------------9-|
C#|-2-2-----2-2-----2-2-|-2-2-----2-2-----2-2-(2)--|-2-2-----2-2-----2-2-(2)-|-------7-7-7-----------9-9-9---|
G#|-2-2-x-x-2-2-x-x-2-2-|-2-2-x-x-2-2-x-x-2-2-(2)--|-2-2-x-x-2-2-x-x-2-2-(2)-|-5-5-5-----------7-7-7---------|
C#|-2-2-x-x-2-2-x-x-2-2-|-2-2-x-x-2-2-x-x-2-2-(2)--|-2-2-x-x-2-2-x-x-2-2-(2)-|-------------------------------|

D#|---------------------|-------------|---------------------|---------------------------------|
A#|---------------------|-------------|---------------------|---------------------------------|
F#|---------------------|-------------|---------------------|-------------7-7-------------9-9-|
C#|-9-9-x-x-9-9-x-x-9-9-|-9-9-(9)-5-7-|-9-9-x-x-9-9-x-x-9-9-|-------7-7-7-----------9-9-9-----| 
G#|-9-9-x-x-9-9-x-x-9-9-|-9-9-(9)-5-7-|-9-9-x-x-9-9-x-x-9-9-|-5-5-5-----------7-7-7-----------|
C#|-9-9-x-x-9-9-x-x-9-9-|-9-9-(9)-5-7-|-9-9-x-x-9-9-x-x-9-9-|---------------------------------|

[Verse 2]

D#|---------------------|-------------|---------------------|---------------------------------|
A#|---------------------|-------------|---------------------|---------------------------------|
F#|---------------------|-------------|---------------------|-------------7-7-------------9-9-|
C#|-9-9-x-x-9-9-x-x-9-9-|-9-9-(9)-5-7-|-9-9-x-x-9-9-x-x-9-9-|-------7-7-7-----------9-9-9-----| x3
G#|-9-9-x-x-9-9-x-x-9-9-|-9-9-(9)-5-7-|-9-9-x-x-9-9-x-x-9-9-|-5-5-5-----------7-7-7-----------|
C#|-9-9-x-x-9-9-x-x-9-9-|-9-9-(9)-5-7-|-9-9-x-x-9-9-x-x-9-9-|---------------------------------|

[Pre-Chorus 2]

D#|-------------------------|-------------------------|-------------------------|-------------------------|
A#|-------------------------|-------------------------|-------------------------|-------------------------|
F#|-------------------------|-------------------------|-------------------------|-------------------------|
C#|-(9)-9-x-x-(9)-9-x-x-9-9-|-(9)-9-x-x-(9)-9-x-x-9-9-|-(7)-7-x-x-(7)-7-x-x-7-7-|-(2)-2-x-x-(2)-2-x-x-2-2-| x2
G#|-(9)-9-x-x-(9)-9-x-x-9-9-|-(7)-7-x-x-(7)-7-x-x-7-7-|-(5)-5-x-x-(5)-5-x-x-5-5-|-(2)-2-x-x-(2)-2-x-x-2-2-|
C#|-(9)-9-x-x-(9)-9-x-x-9-9-|-(7)-7-x-x-(7)-7-x-x-7-7-|-(5)-5-x-x-(5)-5-x-x-5-5-|-(2)-2-x-x-(2)-2-x-x-2-2-|

[Chorus 2]

D#|---------------------|---------------------|---------------------|---------------------|
A#|---------------------|---------------------|---------------------|---------------------|
F#|---------------------|---------------------|---------------------|---------------------|
C#|-9-9-----9-9---------|-7-7-----7-7---------|-5-5-----5-5---------|-2-2-----2-2-----2-2-| x2
G#|-9-9-x-x-9-9-x-x-9-7-|-7-7-x-x-7-7-x-x-7-5-|-5-5-x-x-5-5-x-x-5---|-2-2-x-x-2-2-x-x-2-2-|
C#|-9-9-x-x-9-9-x-x-----|-7-7-x-x-7-7-x-x-----|-5-5-x-x-5-5-x-x---7-|-2-2-x-x-2-2-x-x-2-2-|

D#|---------------------|--------------------------|-------------------------|-------------------------------|
A#|---------------------|--------------------------|-------------------------|-------------------------------|
F#|---------------------|--------------------------|-------------------------|-------------7-7-------------9-|
C#|-2-2-----2-2-----2-2-|-2-2-----2-2-----2-2-(2)--|-2-2-----2-2-----2-2-(2)-|-------7-7-7-----------9-9-9---|
G#|-2-2-x-x-2-2-x-x-2-2-|-2-2-x-x-2-2-x-x-2-2-(2)--|-2-2-x-x-2-2-x-x-2-2-(2)-|-5-5-5-----------7-7-7---------|
C#|-2-2-x-x-2-2-x-x-2-2-|-2-2-x-x-2-2-x-x-2-2-(2)--|-2-2-x-x-2-2-x-x-2-2-(2)-|-------------------------------|

[Rhythm under solo]

D#|-------------------------|-------------------------|-------------------------|-------------------------|
A#|-------------------------|-------------------------|-------------------------|-------------------------|
F#|-------------------------|-------------------------|-------------------------|-------------------------|
C#|-(9)-9-9-9-(9)-9-9-9-(9)-|-(9)-9-9-9-(9)-9-9-9-(9)-|-(7)-7-7-7-(7)-7-7-7-(7)-|-(2)-2-2-2-(2)-2-2-2-(2)-| x2
G#|-(9)-9-9-9-(9)-9-9-9-(9)-|-(7)-7-7-7-(7)-7-7-7-(7)-|-(5)-5-5-5-(5)-5-5-5-(5)-|-(2)-2-2-2-(2)-2-2-2-(2)-|
C#|-(9)-9-9-9-(9)-9-9-9-(9)-|-(7)-7-7-7-(7)-7-7-7-(7)-|-(5)-5-5-5-(5)-5-5-5-(5)-|-(2)-2-2-2-(2)-2-2-2-(2)-|

D#|--------|--------|--------|--------|
A#|--------|--------|--------|--------|
F#|--------|--------|--------|--------|
C#|-(9)----|-(7)----|-(5)----|-(2)----| x2
G#|-(9)----|-(7)----|-(5)----|-(2)----|
C#|-(9)----|-(7)----|-(5)----|-(2)----|

[Outro]

D#|---------------------|-------------|---------------------|---------------------------------|
A#|---------------------|-------------|---------------------|---------------------------------|
F#|---------------------|-------------|---------------------|-------------7-7-------------9-9-|
C#|-9-9-x-x-9-9-x-x-9-9-|-9-9-(9)-5-7-|-9-9-x-x-9-9-x-x-9-9-|-------7-7-7-----------9-9-9-----| x2
G#|-9-9-x-x-9-9-x-x-9-9-|-9-9-(9)-5-7-|-9-9-x-x-9-9-x-x-9-9-|-5-5-5-----------7-7-7-----------|
C#|-9-9-x-x-9-9-x-x-9-9-|-9-9-(9)-5-7-|-9-9-x-x-9-9-x-x-9-9-|---------------------------------|

FOR GOOD REFERENCE, HERE IS THE TRACK ON SOUNDCLOUD: 
https://soundcloud.com/add-rocks/fight?in=add-rocks/sets/originals#t=0:00

************************************

| x   Dead note
| \   Slide down
|( )  Hold note
************************************
Suggest correction
Give kudos to tab author, rate the tab!
1 2 3 4 5
comments
print report bad tab
guest
You may want to rate the tab now too:
select rating
Wanna post a correction for this tab? Suggest correction