Oops, an error
Loading. Please wait.

Mind Over Matter Tab

10 views 1 this week
no commentswrite comment
1 2 3 4 5
2 more votes to show rating
add to favorites
launch autoscroll
font size
0
reset
how to read this tab
guitar tuner
Autoscroll
slow
fast
+/-
esc
set tempo
stop
Help us to improve Ultimate-Guitar.com Take our survey!
×
Author
Difficulty
Tuning
novice
C# G# C# F# A# D#
[Intro]

D#|-------------|---------------------------|
A#|-------------|---------------------------|
F#|-------------|---------------------------|
C#|-2-2-2-3-0-2-|--2-2-2-3-0-(7)-7-7-0---+5-|
G#|-2-2-2-3-0-2-|--2-2-2-3-0-(5)-5-5-0-+5---| x4
C#|-2-2-2-3-0-2-|--2-2-2-3-0-(5)-5-5-0------|


[Verse]
"I love the way you lied"
D#|-------------|---------------------------|
A#|-------------|---------------------------|
F#|-------------|---------------------------|
C#|-2-2-2-3-0-2-|--2-2-2-3-0-(7)-7-7-0---+5-|
G#|-2-2-2-3-0-2-|--2-2-2-3-0-(5)-5-5-0-+5---| x4
C#|-2-2-2-3-0-2-|--2-2-2-3-0-(5)-5-5-0------|
"I'm Running away, I'm running away, I'm running away, can you catch me?"
D#|-----------|-----------|-----------|----------------|
A#|-----------|-----------|-----------|----------------|
F#|-----------|-----------|-----------|----------------|
C#|-2-2-2-3-0-|-2-2-2-3-5-|-2-2-2-3-0-|-(7)-7-7-0---+5-|
G#|-2-2-2-3-0-|-2-2-2-3-5-|-2-2-2-3-0-|-(5)-5-5-0-+5---| 
C#|-2-2-2-3-0-|-2-2-2-3-5-|-2-2-2-3-0-|-(5)-5-5-0------|

D#|-----------|-----------|-----------|-------------|
A#|-----------|-----------|-----------|-------------|
F#|-----------|-----------|-----------|-------------|
C#|-2-2-2-3-0-|-2-2-2-3-5-|-2-2-2-3-0-|-(7)-7-7-(0)-|
G#|-2-2-2-3-0-|-2-2-2-3-5-|-2-2-2-3-0-|-(5)-5-5-(0)-| 
C#|-2-2-2-3-0-|-2-2-2-3-5-|-2-2-2-3-0-|-(5)-5-5-(0)-|


[Chorus]
"In my mind"               
D#|---------------------|-----------------------------|-----------------------------|
A#|---------------------|-----------------------------|-----------------------------|
F#|---------------------|-(9)-9-9-9-(9)-9-9-9-(9)-----|-----------------------------|
C#|-(2)-2-3-0-(2)-2-x-x-|-(9)-9-9-9-(9)-9-9-9-(9)-x-x-|-(7)-7-7-7-(7)-7-7-7-(7)-7-7-|
G#|-(2)-2-3-0-(2)-2-x-x-|-(7)-7-7-7-(7)-7-7-7-(7)-x-x-|-(5)-5-5-5-(5)-5-5-5-(5)-5-5-|
C#|-(2)-2-3-0-(2)-2-x-x-|-(7)-7-7-7-(7)-7-7-7-(7)-x-x-|-(5)-5-5-5-(5)-5-5-5-(5)-5-5-|

D#|--------------|--------------|
A#|--------------|--------------|
F#|--------------|--------------|
C#|-(9)--(9)-9-9-|-(5)--(5)-5-5-|
G#|-(7)--(7)-7-7-|-(3)--(3)-3-3-|
C#|-(7)--(7)-7-7-|-(3)--(3)-3-3-|
"Oh my eyes"
D#|---------------------|-----------------------------|-----------------------------|
A#|---------------------|-----------------------------|-----------------------------|
F#|---------------------|-(9)-9-9-9-(9)-9-9-9-(9)-----|-----------------------------|
C#|-(2)-2-3-0-(2)-2-x-x-|-(9)-9-9-9-(9)-9-9-9-(9)-x-x-|-(7)-7-7-7-(7)-7-7-7-(7)-7-7-|
G#|-(2)-2-3-0-(2)-2-x-x-|-(7)-7-7-7-(7)-7-7-7-(7)-x-x-|-(5)-5-5-5-(5)-5-5-5-(5)-5-5-|
C#|-(2)-2-3-0-(2)-2-x-x-|-(7)-7-7-7-(7)-7-7-7-(7)-x-x-|-(5)-5-5-5-(5)-5-5-5-(5)-5-5-|

D#|--------------|--------------|
A#|--------------|--------------|
F#|--------------|--------------|
C#|-(9)--(9)-9-9-|-(5)--(5)-5-5-|
G#|-(7)--(7)-7-7-|-(3)--(3)-3-3-|
C#|-(7)--(7)-7-7-|-(3)--(3)-3-3-|

[Verse]

D#|-------------|---------------------------|
A#|-------------|---------------------------|
F#|-------------|---------------------------|
C#|-2-2-2-3-0-2-|--2-2-2-3-0-(7)-7-7-0---+5-|
G#|-2-2-2-3-0-2-|--2-2-2-3-0-(5)-5-5-0-+5---| x6
C#|-2-2-2-3-0-2-|--2-2-2-3-0-(5)-5-5-0------|
"I'm Running away, I'm running away, I'm running away, can you catch me?"
D#|-----------|-----------|-----------|----------------|
A#|-----------|-----------|-----------|----------------|
F#|-----------|-----------|-----------|----------------|
C#|-2-2-2-3-0-|-2-2-2-3-5-|-2-2-2-3-0-|-(7)-7-7-0---+5-|
G#|-2-2-2-3-0-|-2-2-2-3-5-|-2-2-2-3-0-|-(5)-5-5-0-+5---| 
C#|-2-2-2-3-0-|-2-2-2-3-5-|-2-2-2-3-0-|-(5)-5-5-0------|

D#|-----------|-----------|-----------|-------------|
A#|-----------|-----------|-----------|-------------|
F#|-----------|-----------|-----------|-------------|
C#|-2-2-2-3-0-|-2-2-2-3-5-|-2-2-2-3-0-|-(7)-7-7-(0)-|
G#|-2-2-2-3-0-|-2-2-2-3-5-|-2-2-2-3-0-|-(5)-5-5-(0)-| 
C#|-2-2-2-3-0-|-2-2-2-3-5-|-2-2-2-3-0-|-(5)-5-5-(0)-|

[Chorus 2]
"In my mind"               
D#|---------------------|-----------------------------|-----------------------------|
A#|---------------------|-----------------------------|-----------------------------|
F#|---------------------|-(9)-9-9-9-(9)-9-9-9-(9)-----|-----------------------------|
C#|-(2)-2-3-0-(2)-2-x-x-|-(9)-9-9-9-(9)-9-9-9-(9)-x-x-|-(7)-7-7-7-(7)-7-7-7-(7)-7-7-|
G#|-(2)-2-3-0-(2)-2-x-x-|-(7)-7-7-7-(7)-7-7-7-(7)-x-x-|-(5)-5-5-5-(5)-5-5-5-(5)-5-5-|
C#|-(2)-2-3-0-(2)-2-x-x-|-(7)-7-7-7-(7)-7-7-7-(7)-x-x-|-(5)-5-5-5-(5)-5-5-5-(5)-5-5-|

D#|--------------|--------------|
A#|--------------|--------------|
F#|--------------|--------------|
C#|-(9)--(9)-9-9-|-(5)--(5)-5-5-|
G#|-(7)--(7)-7-7-|-(3)--(3)-3-3-|
C#|-(7)--(7)-7-7-|-(3)--(3)-3-3-|
"Oh my eyes"
D#|---------------------|-----------------------------|-----------------------------|
A#|---------------------|-----------------------------|-----------------------------|
F#|---------------------|-(9)-9-9-9-(9)-9-9-9-(9)-----|-----------------------------|
C#|-(2)-2-3-0-(2)-2-x-x-|-(9)-9-9-9-(9)-9-9-9-(9)-x-x-|-(7)-7-7-7-(7)-7-7-7-(7)-7-7-|
G#|-(2)-2-3-0-(2)-2-x-x-|-(7)-7-7-7-(7)-7-7-7-(7)-x-x-|-(5)-5-5-5-(5)-5-5-5-(5)-5-5-|
C#|-(2)-2-3-0-(2)-2-x-x-|-(7)-7-7-7-(7)-7-7-7-(7)-x-x-|-(5)-5-5-5-(5)-5-5-5-(5)-5-5-|

D#|--------------|--------------|
A#|--------------|--------------|
F#|--------------|--------------|
C#|-(9)--(9)-9-9-|-(5)--(5)-5-5-|
G#|-(7)--(7)-7-7-|-(3)--(3)-3-3-|
C#|-(7)--(7)-7-7-|-(3)--(3)-3-3-|

[Bridge]
This is the rhythm part. You will hear it if you listen closely.
D#|--------|--------|--------|--------|--------|
A#|--------|--------|--------|--------|--------|
F#|--------|-(9)----|--------|--------|--------|
C#|-(2)----|-(9)----|-(7)----|-(9)----|-(5)----| x2
G#|-(2)----|-(7)----|-(5)----|-(7)----|-(3)----|
C#|-(2)----|-(7)----|-(5)----|-(7)----|-(3)----|

D#|--------|--------|--------|--------|----------|
A#|--------|--------|--------|--------|----------|
F#|--------|-(9)----|--------|--------|----------|
C#|-(2)----|-(9)----|-(7)----|-(9)----|-(5)----0-| 
G#|-(2)----|-(7)----|-(5)----|-(7)----|-(3)----0-|
C#|-(2)----|-(7)----|-(5)----|-(7)----|-(3)----0-|


[Chorus 2]
"In my mind"               
D#|----------------------|-----------------------------|-----------------------------|
A#|----------------------|-----------------------------|-----------------------------|
F#|----------------------|-(9)-9-9-9-(9)-9-9-9-(9)-----|-----------------------------|
C#|--(2)-2-3-0-(2)-2-x-x-|-(9)-9-9-9-(9)-9-9-9-(9)-x-x-|-(7)-7-7-7-(7)-7-7-7-(7)-7-7-|
G#|--(2)-2-3-0-(2)-2-x-x-|-(7)-7-7-7-(7)-7-7-7-(7)-x-x-|-(5)-5-5-5-(5)-5-5-5-(5)-5-5-|
C#|-\(2)-2-3-0-(2)-2-x-x-|-(7)-7-7-7-(7)-7-7-7-(7)-x-x-|-(5)-5-5-5-(5)-5-5-5-(5)-5-5-|

D#|--------------|--------------|
A#|--------------|--------------|
F#|--------------|--------------|
C#|-(9)--(9)-9-9-|-(5)--(5)-5-5-|
G#|-(7)--(7)-7-7-|-(3)--(3)-3-3-|
C#|-(7)--(7)-7-7-|-(3)--(3)-3-3-|
"Oh my eyes"
D#|---------------------|-----------------------------|-----------------------------|
A#|---------------------|-----------------------------|-----------------------------|
F#|---------------------|-(9)-9-9-9-(9)-9-9-9-(9)-----|-----------------------------|
C#|-(2)-2-3-0-(2)-2-x-x-|-(9)-9-9-9-(9)-9-9-9-(9)-x-x-|-(7)-7-7-7-(7)-7-7-7-(7)-7-7-|
G#|-(2)-2-3-0-(2)-2-x-x-|-(7)-7-7-7-(7)-7-7-7-(7)-x-x-|-(5)-5-5-5-(5)-5-5-5-(5)-5-5-|
C#|-(2)-2-3-0-(2)-2-x-x-|-(7)-7-7-7-(7)-7-7-7-(7)-x-x-|-(5)-5-5-5-(5)-5-5-5-(5)-5-5-|

D#|--------------|--------------|
A#|--------------|--------------|
F#|--------------|--------------|
C#|-(9)--(9)-9-9-|-(5)--(5)-5-5-|
G#|-(7)--(7)-7-7-|-(3)--(3)-3-3-|
C#|-(7)--(7)-7-7-|-(3)--(3)-3-3-|

[Outro]

D#|-------------|-----------|-------------------0-|
A#|-------------|-----------|-------------------4-|
F#|-------------|-----------|-------------------5-|
C#|-(2)-2-3-(2)-|-2-3-0-(2)-|-2-3-(2)-(2)-(2)-3---|
G#|-(2)-2-3-(2)-|-2-3-0-(2)-|-2-3-(2)-(2)-(2)-3---|
C#|-(2)-2-3-(2)-|-2-3-0-(2)-|-2-3-(2)-(2)-(2)-3---|

D#|-------------|-----------|-------0-|
A#|-------------|-----------|-------4-|
F#|-------------|-----------|-------5-|
C#|-(2)-2-3-(2)-|-2-3-0-(2)-|-2-3-0---|
G#|-(2)-2-3-(2)-|-2-3-0-(2)-|-2-3-0---|
C#|-(2)-2-3-(2)-|-2-3-0-(2)-|-2-3-0---|

For reference, here is their song on soundcloud: https://soundcloud.com/add-rocks/mind-over-matter

************************************

| x   Dead note
| \   Slide down
| +   Harmonic

************************************
Suggest correction
Give kudos to tab author, rate the tab!
1 2 3 4 5
comments
print report bad tab
guest
You may want to rate the tab now too:
select rating
Wanna post a correction for this tab? Suggest correction