Oops, an error
Loading. Please wait.

Unwanted Tab

7 views 1 this week
no commentswrite comment
1 2 3 4 5
3 more votes to show rating
add to favorites
launch autoscroll
font size
0
reset
how to read this tab
guitar tuner
Autoscroll
slow
fast
+/-
esc
set tempo
stop
Help us to improve Ultimate-Guitar.com Take our survey!
×
Author
Difficulty
Tuning
novice
C# G# C# F# A# D#
[Verse]
"I, I try to fix it all away"
D#|-----------|---------------|
A#|-----------|---------------|
F#|-----------|---------------|
C#|-2-2-5-5-2-|-2-2-5-5-2-7-5-| x8
G#|-2-2-5-5-2-|-2-2-5-5-2-5-5-|
C#|-2-2-5-5-2-|-2-2-5-5-2-5-5-|

[Chorus]
"I'll stray away, people don't get me"
D#|---------|---------|---------|---------|---------|---------|---------|--------|
A#|---------|---------|---------|---------|---------|---------|---------|--------|
F#|-----4-4-|-----7-7-|-----4-4-|-----7-7-|-----4-4-|-----7-7-|-----4-4-|-(7)----|
C#|-2-2-2-2-|-5-5-5-5-|-2-2-2-2-|-5-5-5-5-|-2-2-2-2-|-5-5-5-5-|-2-2-2-2-|-(5)----|
G#|-2-2-2-2-|-5-5-5-5-|-2-2-2-2-|-5-5-5-5-|-2-2-2-2-|-5-5-5-5-|-2-2-2-2-|-(5)----|
C#|-2-2-2-2-|-5-5-5-5-|-2-2-2-2-|-5-5-5-5-|-2-2-2-2-|-5-5-5-5-|-2-2-2-2-|-(5)----|

[Verse 2]
"The pain that we always feel"
D#|-----------|---------------|
A#|-----------|---------------|
F#|-----------|---------------|
C#|-2-2-5-5-2-|-2-2-5-5-2-7-5-| x8
G#|-2-2-5-5-2-|-2-2-5-5-2-5-5-|
C#|-2-2-5-5-2-|-2-2-5-5-2-5-5-|

[Chorus 2]
"I'll stray away, people don't get me"
D#|---------|---------|---------|---------|---------|---------|---------|--------|
A#|---------|---------|---------|---------|---------|---------|---------|--------|
F#|-----4-4-|-----7-7-|-----4-4-|-----7-7-|-----4-4-|-----7-7-|-----4-4-|-(7)----|
C#|-2-2-2-2-|-5-5-5-5-|-2-2-2-2-|-5-5-5-5-|-2-2-2-2-|-5-5-5-5-|-2-2-2-2-|-(5)----|
G#|-2-2-2-2-|-5-5-5-5-|-2-2-2-2-|-5-5-5-5-|-2-2-2-2-|-5-5-5-5-|-2-2-2-2-|-(5)----|
C#|-2-2-2-2-|-5-5-5-5-|-2-2-2-2-|-5-5-5-5-|-2-2-2-2-|-5-5-5-5-|-2-2-2-2-|-(5)----|

[Rhythm under the solo]

D#|-----------|---------------|
A#|-----------|---------------|
F#|-----------|---------------|
C#|-2-2-5-5-2-|-2-2-5-5-2-7-5-| x4
G#|-2-2-5-5-2-|-2-2-5-5-2-5-5-|
C#|-2-2-5-5-2-|-2-2-5-5-2-5-5-|

D#|---------|---------|---------|---------|---------|---------|---------|--------|
A#|---------|---------|---------|---------|---------|---------|---------|--------|
F#|-----4-4-|-----7-7-|-----4-4-|-----7-7-|-----4-4-|-----7-7-|-----4-4-|-(7)----|
C#|-2-2-2-2-|-5-5-5-5-|-2-2-2-2-|-5-5-5-5-|-2-2-2-2-|-5-5-5-5-|-2-2-2-2-|-(5)----|
G#|-2-2-2-2-|-5-5-5-5-|-2-2-2-2-|-5-5-5-5-|-2-2-2-2-|-5-5-5-5-|-2-2-2-2-|-(5)----|
C#|-2-2-2-2-|-5-5-5-5-|-2-2-2-2-|-5-5-5-5-|-2-2-2-2-|-5-5-5-5-|-2-2-2-2-|-(5)----|

[Bridge]

D#|-----------------|
A#|-----------------|
F#|---------------4-|
C#|-----------2-2-2-| x7     
G#|-----------2-2-2-|
C#|-b4p2-b4p2-2-2-2-|     

D#|------------------|
A#|------------------|
F#|------------------|
C#|-----------(2)----|     
G#|-----------(2)----|
C#|-b4p2-b4p2-(2)----|

[Rhythm under 2nd solo]

D#|-----------|---------------|
A#|-----------|---------------|
F#|-----------|---------------|
C#|-2-2-5-5-2-|-2-2-5-5-2-7-5-| x4
G#|-2-2-5-5-2-|-2-2-5-5-2-5-5-|
C#|-2-2-5-5-2-|-2-2-5-5-2-5-5-|

[Chorus 2]
"I'll stray away, people don't get me"
D#|---------|---------|---------|---------|---------|---------|---------|--------|
A#|---------|---------|---------|---------|---------|---------|---------|--------|
F#|-----4-4-|-----7-7-|-----4-4-|-----7-7-|-----4-4-|-----7-7-|-----4-4-|-(7)----|
C#|-2-2-2-2-|-5-5-5-5-|-2-2-2-2-|-5-5-5-5-|-2-2-2-2-|-5-5-5-5-|-2-2-2-2-|-(5)----|
G#|-2-2-2-2-|-5-5-5-5-|-2-2-2-2-|-5-5-5-5-|-2-2-2-2-|-5-5-5-5-|-2-2-2-2-|-(5)----|
C#|-2-2-2-2-|-5-5-5-5-|-2-2-2-2-|-5-5-5-5-|-2-2-2-2-|-5-5-5-5-|-2-2-2-2-|-(5)----|

[Outro]

D#|-----------|---------------|-----------|-----------|
A#|-----------|---------------|-----------|-----------|
F#|-----------|---------------|-----------|-----------|
C#|-2-2-5-5-2-|-2-2-5-5-2-7-5-|-2-2-5-5-2-|-2-2-5-5-2-|
G#|-2-2-5-5-2-|-2-2-5-5-2-5-5-|-2-2-5-5-2-|-2-2-5-5-2-|
C#|-2-2-5-5-2-|-2-2-5-5-2-5-5-|-2-2-5-5-2-|-2-2-5-5-2-|

For reference, here is the song on soundcloud: https://soundcloud.com/add-rocks/unwanted-1

************************************

| p   Pull-off
| b   Bend
|( )  Hold note

************************************
Suggest correction
Give kudos to tab author, rate the tab!
1 2 3 4 5
comments
print report bad tab
guest
You may want to rate the tab now too:
select rating
Wanna post a correction for this tab? Suggest correction