Oops, an error
Loading. Please wait.

The Very Beginning tab

40 views 1 this week
no commentswrite comment
1 2 3 4 5
3 more votes to show rating
add to favorites
×
Save as Personal and add changes to this tab that will be seen only by you. Learn more ›
×
You can save this tab as Personal to edit and correct it or add notes. All changes will be seen only by you. Learn more »
launch autoscroll
font size
0
reset
how to read this tab
guitar tuner
edit
Autoscroll
slow
fast
+/-
esc
set tempo
stop
[Verse 1]
  I dreamed...
...were
  And I...
e|-----3-2--------3-2---|-----3-2--------3-2---|
B|-3-------3--3-------3-|-3-------3--3-------3-|
G|---2----------2-------|---0----------0-------| (x3)
D|----------------------|----------------------|
A|----------------------|----------------------|
E|----------------------|----------------------|

...try
e|-----3-2--------3-2---|-----3-2--------3-2---|
B|-3-------3--3-------3-|-3-------3--3-------0-|
G|---2----------2-------|---0----------0-------|
D|----------------------|----------------------|
A|----------------------|----------------------|
E|----------------------|----------------------|

I dreamed of you
There you were
All in blue
And I never knew
So let's try
To start anew

[Chorus]
 Let's...                                        Let's...
e|-----0----------3-0-2---|-----3-2--------3-2-0-|-----0----------3-0-2---|
B|-2-----2-0--3---------3-|-3-------3--3---------|-2-----2-0--3---------3-|
G|---2----------0---------|---2----------3-------|---2----------0---------|
D|------------------------|----------------------|------------------------|
A|------------------------|----------------------|------------------------|
E|------------------------|----------------------|------------------------|   

              Till...
e|-----3-2--------3-2---|-----3-2--------3-2---|
B|-3-------0--3-------3-|-3-------3--3-------3-|
G|---2----------2-------|---0----------0-------|
D|----------------------|----------------------|
A|----------------------|----------------------|
E|----------------------|----------------------|

Let's start again from the very beginning
Let's carry on till we get to an ending
Till we get to an ending

[Instrumental]
e|-----3-2--------3-2---|-----3-2--------3-2---|
B|-3-------3--3-------3-|-3-------3--3-------3-|
G|---2----------2-------|---0----------0-------|
D|----------------------|----------------------|
A|----------------------|----------------------|
E|----------------------|----------------------|

[Verse 2]
  I...
...morphic
  But...
e|-----3-2--------3-2---|-----3-2--------3-2---|
B|-3-------3--3-------3-|-3-------3--3-------3-|
G|---2----------2-------|---0----------0-------| (x3)
D|----------------------|----------------------|
A|----------------------|----------------------|
E|----------------------|----------------------|

...emptiness
e|-----3-2--------3-2---|-----3-2--------3-2---|
B|-3-------3--3-------3-|-3-------3--3-------0-|
G|---2----------2-------|---0----------0-------|
D|----------------------|----------------------|
A|----------------------|----------------------|
E|----------------------|----------------------|

I wanted something
All wasn't morphic
Until november
But now i can't face
Is it emptiness
So let's forget her

[Chorus]
  Let's...                                      Let's...
e|-----0----------3-2---|-----3-2--------3-2-0-|-----0----------3-2---|
B|-2-----2-0--3-------3-|-3-------3--3---------|-2-----2-0--3-------3-|
G|---2----------0-------|---2----------3-------|---2----------0-------|
D|----------------------|----------------------|----------------------|
A|----------------------|----------------------|----------------------|
E|----------------------|----------------------|----------------------|

              Till...  
e|-----3-2--------3-2-0-|-----0----------0-----|
B|-3-------3--3---------|-0-----0-0--0-----0-0-|
G|---2----------2-------|---0----------0-------|
D|----------------------|----------------------|
A|----------------------|----------------------|
E|----------------------|----------------------|

Let's start again from the very beginning
Let's carry on till we get to an ending
Till we get to an ending

[Instrumental]
e|-----3-2--------3-2-0-|-----0----------0-----|-----0----------0-----|
B|-3-------0--3---------|-2-----2-2--2-----2-0-|-0-----0-0--2-----2-0-|
G|---0----------0-------|---2----------2-------|---0----------2-------|
D|----------------------|----------------------|----------------------|
A|----------------------|----------------------|----------------------|
E|----------------------|----------------------|----------------------|

e|-----3-2--------3-2---|-----3-2--------3-2---|
B|-3-------3--3-------3-|-3-------3--3-------3-|
G|---2----------2-------|---0----------0-------| (x3)
D|----------------------|----------------------|
A|----------------------|----------------------|
E|----------------------|----------------------|

e|-----3-2--------3-2---|-----3-2--------3-2-0---|
B|-3-------3--3-------3-|-3-------3--3---------3-|
G|---2----------2-------|---0----------0---------| 
D|----------------------|------------------------|
A|----------------------|------------------------|
E|----------------------|------------------------|

[Verse 3]
  I...
e|-----3-2--------3-2---|-----3-2--------3-2---|
B|-3-------3--3-------3-|-3-------3--3-------3-|
G|---2----------2-------|---0----------0-------|
D|----------------------|----------------------|
A|----------------------|----------------------|
E|----------------------|----------------------|

...new
e|-----3-2--------3-2---|-----3-2--------3-2-0---|
B|-3-------3--3-------3-|-3-------3--3---------3-|
G|---2----------2-------|---0----------0---------| 
D|----------------------|------------------------|
A|----------------------|------------------------|
E|----------------------|------------------------|

  But...
e|-----3-2--------3-2---|-----3-2--------3-2---|
B|-3-------3--3-------3-|-3-------3--3-------3-|
G|---2----------2-------|---0----------0-------|
D|----------------------|----------------------|
A|----------------------|----------------------|
E|----------------------|----------------------|

...thing
e|-----3-2--------3-2---|-----3-2--------3-2---|
B|-3-------3--3-------3-|-3-------3--3-------0-|
G|---2----------2-------|---0----------0-------|
D|----------------------|----------------------|
A|----------------------|----------------------|
E|----------------------|----------------------|

I made mistakes
With somebody new
We always do
But why hide anymore
Let's do the thing
We wanted to

[Chorus]
  Let's...                                        Let's...
e|-----0----------3-0-2---|-----3-2--------3-2-0-|-----0----------3-0-2---|
B|-2-----2-0--3---------3-|-3-------3--3---------|-2-----2-0--3---------3-|
G|---2----------0---------|---2----------3-------|---2----------0---------|
D|------------------------|----------------------|------------------------|
A|------------------------|----------------------|------------------------|
E|------------------------|----------------------|------------------------|

Let's start again from the very beginning
Let's carry on till we get to an ending

[Outro]
e|-----3-2--------3-2---|-----3-2--------3-2-2-|
B|-3-------3--3-------3-|-3-------3--3-------3-|
G|---2----------2-------|---0----------0-----2-|
D|----------------------|--------------------0-|
A|----------------------|----------------------|
E|----------------------|----------------------|

            
            
Suggest correction
Creating personal tab
Creating personal tab
You can edit any tab online and save it as your Personal.

You can edit, replace or remove any tab part or add personal notes – all changes will be seen only by you.

Personal tabs can be accessed anytime from any device, even offline.
Learn more »
Give kudos to tab author, rate the tab!
1 2 3 4 5
comments
print report bad tab
guest
You may want to rate the tab now too:
select rating
Wanna post a correction for this tab? Suggest correction