Oops, an error
Loading. Please wait.

Killer Bee bass

by Anouk
106 views 3 this week
no commentswrite comment
1 2 3 4 5
3 more votes to show rating
add to favorites
×
Save as Personal and add changes to this tab that will be seen only by you. Learn more ›
×
You can save this tab as Personal to edit and correct it or add notes. All changes will be seen only by you. Learn more »
launch autoscroll
font size
0
reset
guitar tuner
edit
Autoscroll
slow
fast
+/-
esc
set tempo
stop
Author
Difficulty
"Killer Bee"

Intro: 

---------12--14-|---------10--12-|---------10--12-|-14--12--10-----|
-12--12---------|-12--12---------|-12--12---------|-------------12-|
----------------|----------------|----------------|----------------|
----------------|----------------|----------------|----------------|

Verse:
----------------|----------------|
----------------|----------------|
-5-—5-----1---1-|-3-—3-----------|
----------------|----------3---3-|

I don’t want no trouble baby
I just wanted you to see
That I can get you much better love
I’ll be that bitch she’ll never be
I ain’t no home-wrecker but you deserve that killer bee honey!
I’ll give it up for anything but easy
Let me reply it's got to be me

Bridge: 
---------12--14-|---------10--12-|
-12--12---------|-12--12---------|
----------------|----------------|
----------------|----------------| 3x

----------------|----------------|
----------------|----------------|
-10-—10--10--10-|-10-—10--10--10-|
----------------|----------------|

You can’t imagine what I am going through
And all those ladies stop and stare at you
Now come on and get it Now let’s get higher
Because I’m the kind of girl dancing on a thin wire

Chorus: 
----------------|----------------|
----------------|----------------|
-5-—5-----1---1-|-3-—3-----------|
----------------|----------3---3-|

Walk down here baby
leave it all up to me
while I will make you cry for more
Before you know it you’ll be begging me on your knees
Cause I got the fire yeah!

Interlude: 
Now come on and get it
Now come on and get it


Verse:
When it comes to making love
Yeah I’m the one you’re looking for
But don’t you waste all of your time
Come over here before I’ll change my mind

Bridge: 
Now come on and get it
Now come on and get it
Now come on and get it
Now come on and get it
I’ll take you higher 
Yeah I am the kind of girl dancing on a thin wire

Chorus: 
Walk down here baby
leave it all up to me
cause I will make you cry for more
Before you know it that you’ll be begging me on your knees
Oooh yeah!
Walk down here baby leave it all up to me
I will make you cry for more
Before you know it you’ll be begging me on your knees
(Before you know it, before you know it)
Forgive me

Outro:
----------------|----------------|----------------|----------------|
----------------|----------------|----------------|----------------|
-5-—-5---3---3--|-5---5---3---3--|-5-—-5---3---3--|-1---1---0---0--|
----------------|----------------|----------------|----------------| 7x

Come on and get it
Because I got the fire and you’d put it on me
I’m taking you higher I’m ready

Come on and get it
Because I got the fire and you’d put it on me
I’m taking you higher I’m ready 
Suggest correction
Creating personal tab
Creating personal tab
You can edit any tab online and save it as your Personal.

You can edit, replace or remove any tab part or add personal notes – all changes will be seen only by you.

Personal tabs can be accessed anytime from any device, even offline.
Learn more »
Give kudos to tab author, rate the tab!
1 2 3 4 5
comments
print report bad tab
guest
You may want to rate the tab now too:
select rating
Wanna post a correction for this tab? Suggest correction