Oops, an error
Loading. Please wait.

Kun Olet Poissa tab

178 views 6 this week
no commentswrite comment
1 2 3 4 5
3 more votes to show rating
add to favorites
×
Save as Personal and add changes to this tab that will be seen only by you. Learn more ›
×
You can save this tab as Personal to edit and correct it or add notes. All changes will be seen only by you. Learn more »
launch autoscroll
font size
0
reset
how to read this tab
guitar tuner
edit
Autoscroll
slow
fast
+/-
esc
set tempo
stop
Author
Difficulty
Wonderful version of the classic Eppu Normaali song
Recorded in the series "Hetkiä Kalliossa", with Janna on vocals
https://www.youtube.com/watch?v=2s2hlqZgzHM

Tuning: EADGBe (Standard)


[Intro]                                                                        ___________________________
                                                                               |1.                         
   1  &  2  &  3  &  4  &  | 1  &  2  &  3  &  4  &  | 1  &  2  &  3  &  4  &  | 1  &  2  &  3  &  4  &  |
e|-------0--1--------------|----------0--------------|-------0--1-----0--------|-------------------------|
B|-1-h3-----1-----1--------|-0--1--3--------0-----0--|-1-h3-----1--------3-----|-1-----0-----------0-----|
G|-2-----------------2-----|-------------------0-----|-2--------------------2--|-------------2-----------|
D|-2--------3-----------3--|------------h2-----------|-2--------3--------------|-------------------------|
A|-0-----------------------|------------h2-----------|-0-----------------------|-------------------------|
E|-------------------------|-3--------0--------------|-------------------------|-3--------3--------------|x2
 ___________________________
 |2.
   1  &  2  &  3  &  4  &  | 1  &  2  &  3  &  4  &  |
e|-------------------------|-------------------------|
B|-1--------0--------------|----------0--------------|
G|----0-----------0-----2--|-------2-----------------|
D|-------0-----------0-----|----0--------------------|
A|-------------------------|-------------------------|
E|-3-----------3-----------|-3-----------------------|


[Verse]
   1  &  2  &  3  &  4  &  | 1  &  2  &  3  &  4  &  | 1  &  2  &  3  &  4  &  | 1  &  2  &  3  &  4  &  |
e|-------------------------|-------------------------|-------------------------|-------------------------|
B|-1-----------------------|-------------------------|-1-----------------------|---------<5>-------------|
G|-2--------2--------------|-4--------0--------------|-2--------2--------------|------<5>----------------|
D|----------3--------------|-5--------2--------------|----------3--------------|---<5>-------------------|
A|-0-----------------------|-------------------------|-0-----------------------|-------------------------|
E|----------1--------------|-3--------0--------------|----------1-----------1--|/3-----------------------|
   Kun  olet poissa     ja  makaan   yksin   veren   kohinaa     kuunnellen

   1  &  2  &  3  &  4  &  | 1  &  2  &  3  &  4  &  | 1  &  2  &  3  &  4  &  | 1  &  2  &  3  &  4  &  |
e|-------------------------|-------------------------|-------------------------|----------------0--------|
B|-1-----------------------|-------------------------|-1-----------------------|----0--------------1-----|
G|-2--------2--------------|-4--------0--------------|-2--------2--------------|-------0-----------------|
D|----------3--------------|-5--------2--------------|----------3--------------|-------------------------|
A|-0-----------------------|-------------------------|-0-----------------------|----------3-----------3--|
E|----------1--------------|-3--------0--------------|----------1-----------1--|/3-----------------------|
   Samaa vanhaa              kappaletta           sen tempoa    muunnellen

   1  &  2  &  3  &  4  &  | 1  &  2  &  3  &  4  &  | 1  &  2  &  3  &  4  &  | 1  &  2  &  3  &  4  &  |
e|-------------------------|-------0--1--------------|----------0--------------|-------0--1--------------|
B|----3-----------0--------|-1-h3-----1-----1--------|-0--1--3--------0-----0--|-1-h3-----1-----1--------|
G|-------0-----------0-----|-2-----------------2-----|-------------------0-----|-2-----------------2-----|
D|-------------------------|-2--------3-----------3--|------------h2-----------|-2--------3-----------3--|
A|-2-----------------------|-0-----------------------|------------h2-----------|-0-----------------------|
E|----------3--------------|-------------------------|-3--------0--------------|-------------------------|
                               Ajatukseni        kuin perhoset    hullut     lamppua       loistavaa 

   1  &  2  &  3   &   4  &  | 1  &  2  &  3  &  4  &  | 1  &  2  &  3  &  4  &  | 1  &  2  &  3  &  4  &  |
e|---------------------------|-------0--1--------------|----------0--------------|-------0--1--------------|
B|-0--------1----0h1p0----0--|-1-h3-----1-----1--------|-0--1--3--------0-----0--|-1-h3-----1-----1--------|
G|-------0-------------2-----|-2-----------------2-----|-------------------0-----|-2-----------------2-----|
D|----0----------------------|-2--------3-----------3--|------------h2-----------|-2--------3-----------3--|
A|---------------------------|-0-----------------------|------------h2-----------|-0-----------------------|
E|-3-----------3-------------|-------------------------|-3--------0--------------|-------------------------|
                                Kiertelevät        kun  yö    on  tullut   rataa  itseensä     toistavaa 

   1  &  2  &  3  &  4  &  | 1  &  2  &  3  &  4  &  |  1  &  2  &  3  &  4  &  | 1  &  2  &  3  &  4  &  |
e|-------------------------|-------------------------|--------------------------|-------------------------|
B|-0--------0-h1--------0--|----------0-h1--------1--|--------------------------|----------------------3--|
G|----0-----0-----0--------|----0-----------0--------|-----------2-----------2--|----------4--------4-----|
D|-------0-----------0-----|-------0-----------0-----|--------3-----------3-----|-------5--------5--------|
A|-------------------------|-------------------------|-----3-----------3--------|----5--------5-----------|
E|-3-----------------------|-3-----------3-----------|--1-----------1-----------|-3-----------------------|
                                           Miksi   en   saavuttaa                           saavuttaa

   1  &  2  &  3  &  4  &  | 1  &  2  &  3  &  4  &  | 1  &  2  &  3  &  4  &  | 1  &  2  &  3  &  4  &  |
e|-------------------------|-------------------------|-------------------------|-------------------------|
B|----------------------1--|-------------------------|-------------------------|-------------------------|
G|----------2--------2-----|-------4-----------0-----|----------2-----------2--|----------4-----------4--|
D|-------3--------3--------|-------5-----------2-----|-------3-----------3-----|-------5-----------5-----|
A|----3--------3-----------|----5-----5-----2-----2--|----3-----------3--------|----5-----------5--------|
E|-1-----------------------|-3-----------0-----------|-1-----------1-----------|-3-----------3-----------|
              en       saa        sitä  hetkeä      jolloin               en     elä        tolloillen   
   1  &  2  &  3  &  4  &  |
e|-------------------------|
B|-------------------------|
G|-4--4--4--4--4--4--4--4--|
D|-5--5--5--5--5--5--5--5--|
A|-5--5--5--5--5--5--5--5--|
E|-3--3--3--3--3--3--3--3--|
              Kun olet poissa


[Chorus]

Am      F      G       Em           

        Am    F         G               Am    F    G    Em
Näen kasvojasi noissa       mieleni soissa 

     Am        F      G  Gsus4  G  Gsus2  G
Lätäköissä joissa kuu    heijastuu

                Am     F      G 
Saisi aurinko nousta

    Em          Am     F       G
Tai sitten tahtoisin nukahtaa      
               Am     F    G
yö taivuttaa jousta
 
   Em    Am    F       G   Gsus4  G  Gsus2 G       
se katkeaa jos en unta saa


[Interlude]

   1  &  2  &  3  &  4  &  | 1  &  2  &  3  &  4  &  | 1  &  2  &  3  &  4  &  |
e|-------0--1--------------|----------0--------------|-------0--1-----0--------|
B|-1-h3-----1-----1--------|-0--1--3--------0-----0--|-1-h3-----1--------3-----|
G|-2-----------------2-----|-------------------0-----|-2--------------------2--|
D|-2--------3-----------3--|------------h2-----------|-2--------3--------------|
A|-0-----------------------|------------h2-----------|-0-----------------------|
E|-------------------------|-3--------0--------------|-------------------------|

   1  &  2  &  3  &  4  &  | 1  &  2  &  3  &  4  &  |
e|-------------------------|-------------------------|
B|-1--------0--------------|----------0--------------|
G|----0-----------0-----2--|-------2-----------------|
D|-------0-----------0-----|----0--------------------|
A|-------------------------|-------------------------|
E|-3-----------3-----------|-3-----------------------|


[Verse]

   1  &  2  &  3  &  4  &  | 1  &  2  &  3  &  4  &  | 1  &  2  &  3  &  4  &  | 1  &  2  &  3  &  4  &  |
e|-------------------------|-------------------------|-------------------------|-------------------------|
B|-1-----------------------|-------------------------|-1-----------------------|---------<5>-------------|
G|-2--------2--------------|-4--------0--------------|-2--------2--------------|------<5>----------------|
D|----------3--------------|-5--------2--------------|----------3--------------|---<5>-------------------|
A|-0-----------------------|-------------------------|-0-----------------------|-------------------------|
E|----------1--------------|-3--------0--------------|----------1-----------1--|/3-----------------------|
     Yö on  hiljaa        ja antaa    minun           kuunnella itseänsä
   1  &  2  &  3  &  4  &  | 1  &  2  &  3  &  4  &  | 1  &  2  &  3  &  4  &  | 1  &  2  &  3  &  4  &  |
e|-------------------------|-------------------------|-------------------------|----------------0--------|
B|-1-----------------------|-------------------------|-1-----------------------|----0--------------1-----|
G|-2--------2--------------|-4--------0--------------|-2--------2--------------|-------0-----------------|
D|----------3--------------|-5--------2--------------|----------3--------------|-------------------------|
A|-0-----------------------|-------------------------|-0-----------------------|----------3-----------3--|
E|----------1--------------|-3--------0--------------|----------1-----------1--|/3-----------------------|
   Ajatusteni             huonossa   seurassa        mykkiä   vitsejänsä

   1  &  2  &  3  &  4  &  | 1  &  2  &  3  &  4  &  | 1  &  2  &  3  &  4  &  | 1  &  2  &  3  &  4  &  |
e|-------------------------|-------0--1--------------|----------0--------------|-------0--1--------------|
B|----3-----------0--------|-1-h3-----1-----1--------|-0--1--3--------0-----0--|-1-h3-----1-----1--------|
G|-------0-----------0-----|-2-----------------2-----|-------------------0-----|-2-----------------2-----|
D|-------------------------|-2--------3-----------3--|------------h2-----------|-2--------3-----------3--|
A|-2-----------------------|-0-----------------------|------------h2-----------|-0-----------------------|
E|----------3--------------|-------------------------|-3--------0--------------|-------------------------|
                                 Miksi  minulle       sinäkin  olet       vain  heijastus peloistani

   1  &  2  &  3   &   4  &  | 1  &  2  &  3  &  4  &  | 1  &  2  &  3  &  4  &  | 1  &  2  &  3  &  4  &  |
e|---------------------------|-------0--1--------------|----------0--------------|-------0--1--------------|
B|-0--------1----0h1p0----0--|-1-h3-----1-----1--------|-0--1--3--------0-----0--|-1-h3-----1-----1--------|
G|-------0-------------2-----|-2-----------------2-----|-------------------0-----|-2-----------------2-----|
D|----0----------------------|-2--------3-----------3--|------------h2-----------|-2--------3-----------3--|
A|---------------------------|-0-----------------------|------------h2-----------|-0-----------------------|
E|-3-----------3-------------|-------------------------|-3--------0--------------|-------------------------|
                                  Joku  kanssani        sinut    jakaa      enkä  selviä   veloistani

   1  &  2  &  3  &  4  &  | 1  &  2  &  3  &  4  &  |  1  &  2  &  3  &  4  &  | 1  &  2  &  3  &  4  &  |
e|-------------------------|-------------------------|--------------------------|-------------------------|
B|-0--------0-h1--------0--|----------0-h1--------1--|--------------------------|----------------------3--|
G|----0-----0-----0--------|----0-----------0--------|-----------2-----------2--|----------4--------4-----|
D|-------0-----------0-----|-------0-----------0-----|--------3-----------3-----|-------5--------5--------|
A|-------------------------|-------------------------|-----3-----------3--------|----5--------5-----------|
E|-3-----------------------|-3-----------3-----------|--1-----------1-----------|-3-----------------------|
                                           Miksi   en   saavuttaa                           saavuttaa

   1  &  2  &  3  &  4  &  | 1  &  2  &  3  &  4  &  | 1  &  2  &  3  &  4  &  | 1  &  2  &  3  &  4  &  |
e|-------------------------|-------------------------|-------------------------|-------------------------|
B|----------------------1--|-------------------------|-------------------------|-------------------------|
G|----------2--------2-----|-------4-----------0-----|----------2-----------2--|----------4-----------4--|
D|-------3--------3--------|-------5-----------2-----|-------3-----------3-----|-------5-----------5-----|
A|----3--------3-----------|----5-----5-----2-----2--|----3-----------3--------|----5-----------5--------|
E|-1-----------------------|-3-----------0-----------|-1-----------1-----------|-3-----------3-----------|
              en       saa        sitä  hetkeä      jolloin               en     elä        tolloillen   
   1  &  2  &  3  &  4  &  |
e|-------------------------|
B|-------------------------|
G|-4--4--4--4--4--4--4--4--|
D|-5--5--5--5--5--5--5--5--|
A|-5--5--5--5--5--5--5--5--|
E|-3--3--3--3--3--3--3--3--|
              Kun olet poissa


[Chorus]

Am      F      G       Em           

        Am    F         G               Am    F    G    Em
Näen kasvojasi noissa       mieleni soissa 

     Am        F      G  Gsus4  G  Gsus2  G
Lätäköissä joissa kuu    heijastuu

                Am     F      G 
Saisi aurinko nousta

    Em          Am     F       G
Tai sitten tahtoisin nukahtaa      
               Am     F    G
yö taivuttaa jousta
 
   Em    Am    F       G   Gsus4  G  Gsus2 G       
se katkeaa jos en unta saa          Kun olet


[Outro]                                                                        ___________________________
                                                                               |1.                        
   1  &  2  &  3  &  4  &  | 1  &  2  &  3  &  4  &  | 1  &  2  &  3  &  4  &  | 1  &  2  &  3  &  4  &  |
e|-------0--1--------------|----------0--------------|-------0--1-----0--------|-------------------------|
B|-1-h3-----1-----1--------|-0--1--3--------0-----0--|-1-h3-----1--------3-----|-1-----0-----------0-----|
G|-2-----------------2-----|-------------------0-----|-2--------------------2--|-------------2-----------|
D|-2--------3-----------3--|------------h2-----------|-2--------3--------------|-------------------------|
A|-0-----------------------|------------h2-----------|-0-----------------------|-------------------------|
E|-------------------------|-3--------0--------------|-------------------------|-3--------3--------------|x2
 Poissa
 ___________________________
 |2.
   1  &  2  &  3  &  4  &  | 1  &  2  &  3  &  4  &  |
e|-------------------------|-------------------------|
B|-1--------0--------------|----------0--------0-----|
G|----0-----------0-----2--|-------2-----------------|
D|-------0-----------0-----|----0-----------0--------|
A|-------------------------|-------------------------|
E|-3-----------3-----------|-3-----------3-----------|
                                         Kun olet 

End

e|---------0---------------|
B|------0-----0--1---------|
G|---2---------------------|
D|-------------------------|
A|-0-----------------------|
E|-------------------------|
    poissa



************************************

| <>  Harmonic
| h   Hammer-on
| p   Pull-off
| /   Slide up

************************************

            
            
Suggest correction
Creating personal tab
Creating personal tab
You can edit any tab online and save it as your Personal.

You can edit, replace or remove any tab part or add personal notes – all changes will be seen only by you.

Personal tabs can be accessed anytime from any device, even offline.
Learn more »
Give kudos to tab author, rate the tab!
1 2 3 4 5
comments
print report bad tab
guest
You may want to rate the tab now too:
select rating
Wanna post a correction for this tab? Suggest correction