Oops, an error
Loading. Please wait.

Milla Tab

version 1
version 1

Intro

Interactive

55 views 1 this week
no commentswrite comment
1 2 3 4 5
3 more votes to show rating
add to favorites
launch autoscroll
font size
0
reset
how to read this tab
guitar tuner
Autoscroll
slow
fast
+/-
esc
set tempo
stop
Help us to improve Ultimate-Guitar.com Take our survey!
×
Author
Difficulty
intermediate
[Intro]

e|---------0--------|------------0--------|------------0--------0-----------|
B|------------0-----|---------------0-----|---------------0--3-----3--0-----|
G|------0--------0--|---------0--------0--|---------0--------------------0--|
D|--2---------------|---2/4---------------|---0h2---------------------------|
A|--3---------------|---3/5---------------|---0h2---------------------------|
E|------------------|---------------------|---0-----------------------------|

e|---------0--------|------------0--------|------------0-----3--2--0--------|
B|------------0-----|---------------0-----|---------------0-----------3--0--|
G|-----0---------0--|---------0--------0--|---------0-----------------------|
D|--2---------------|---2/4---------------|---0h2---------------------------|
A|--3---------------|---3/5---------------|---0h2---------------------------|
E|------------------|---------------------|---0-----------------------------| 
 
e|--7~~~--|--10--12~~~--|--7~~~--|--10--11--14~~~~--------------------------|
B|--8~~~--|--10--12~~~--|--8~~~--|--10--10--12~~~~--------------------------|
G|--9~~~--|--11--12~~~--|--9~~~--|--11--11--14~~~~--------------------------|
D|--------|-------------|--------|------------------------------------------|
A|--------|-------------|--------|------------------------------------------|
E|--------|-------------|--------|------------------------------------------|
 
************************************

| h  Hammer-on
| /  Slide up
| ~  Vibrato

************************************
Suggest correction
Give kudos to tab author, rate the tab!
1 2 3 4 5
comments
print report bad tab
guest
You may want to rate the tab now too:
select rating
Wanna post a correction for this tab? Suggest correction